Fernandinho

home > Fernandinho

Ainda Que A Figueira Bass Tab

Fernandinho

Difficulty: nolevelnolevel

by Teusalves

tuner correct add songbook print version text version save to e-mail
chordsukulelecavacokeyboardtabbassdrumsharmonicsflute Guitar Pro
chords

Ainda Que A Figueira

Year: 2009 - Album: Uma Nova História: ao Vivo

  		Riff p/ entrar na musica...   

E--------------------------------   
A----5h9-------------------------   
D--------6h9-7-------------------   
G--------------------------------   

riff2 quando repete a musica   

tu és a minha porçao....   

E----------7-7-------------------   
A------6-4-----------------------   
D--6-4---------------------------   
G--------------------------------   

E--------------------------------   
A---4-4-5h7----------------------   
D-----------4h7-4----------------   
G--------------------------------   

E----------7-7-------------------   
A------6-4-----------------------   
D--6-4---------------------------   
G--------------------------------   

E---10h12------------------------   
A---------9h12---12--------------   
D--------------9-----------------   
G--------------------------------   

dps do solo finaliza assim   

E----------------------16-17-----   
A-------------16-14h16-----------   
D----16-16-14--------------------   
G-------------------------------- 
	  

Search Paypal
auto scroll beats size up size down change color hide chords drawings
tab show chords e-chords YouTube Clip e-chords hide all tabs e-chords go to top tab