Fenix TX

Speechless (ver. 2)

Fenix TX

bass

save to print version add songbook text version e-mail correct tuner
chordsukulelecavacokeyboardtabbassdrumsharmonicaflute Guitar Pro
close

there isn't a video lesson for this song

chords

Speechless (ver. 2)

	  		

G|------------------------------------|
D|------------------------------------|
A|7-7-777-----------------------------|
E|--------4-44-4444-5-5-5555-55-5/7-77|

verse (x4)
G|-----------------------------------------|
D|-----------------------------------------|
A|7777-7777--------------------------------|
E|----------4444-4444-5555-5555-5555-5/7-77|

chorus (x3)
G|-------------1-1-2-------------------|
D|--------2-22---------------4-2-1/2-4-|
A|4-4-444------------2-2-222-----------|
E|-------------------------------------|

chorus ending
G|----------------------------------|
D|----------------------------------|
A|----------------------------------|
E|5-5-5555-55-5555-44-4444-7777-7777|

(main riff x4)
(verse x4)
(chorus x3)
(chorus ending)
(main riff x8)

bridge
G|-------------------------------------|
D|-------------------------------------|
A|7-777-77-----------------------------|
E|---------4-444-44-5-555-555-55-5/7-77|

(chorus x3)
(chorus ending)
(main riff x4)

ending
G|-----|
D|-----|
A|--7--|
E|-----|

		  

See also:

bass Capital Inicial - Natasha (Ver.2) bass Tit„s - Marvin bass Paralamas do Sucesso - Vital e Sua Moto bass Capital Inicial - IndependÍncia bass Jota Quest - Dias Melhores bass Paralamas do Sucesso - Selvagem
e-chords

Other versions:

bass Fenix TX - Speechless bass Fenix TX - Speechless (ver. 2)
auto scroll beats size up size down change color hide chords drawings
tab show chords e-chords YouTube Clip e-chords hide all tabs e-chords go to top tab

share