Fall Out Boy

home > Fall Out Boy

Dance Dance Bass Tab

Fall Out Boy

Difficulty: BeginnerBeginner

by Tom+punk

tuner correct add songbook print version text version save to e-mail
chordsukulelecavacokeyboardtabbassdrumsharmonicsflute Guitar Pro
chords

Dance Dance

  		 
A|-2-2-5---5-0-----------5-0--|  
E|---------------3-3----------| 6x  
  
  
  
A|-22225500---------|  
E|---------33335500-| 2x 
  
A|-2-2-5---5-0-----------5-0--|  
E|---------------3-3----------| 2x 
  
2 seconds pause  
  
  
A|-2222222255555555--------55550000-|  
E|-----------------33333333---------| 4x 
 
  
A|-2-2-5---5-0-----------5-0--|   
E|---------------3-3----------| 4x 
  
 
A|-22225500---------|  
E|---------33335500-| 4x 
  
 
 
A|-2-2-5--------5--|  
E|---------3-3----| 1x 
  
  
  
  
A|-2222222255555555--------55550000-|  
E|-----------------33333333---------| 4x 
  
  
A|-2-------5---------------5--------|  
E|-----------------3----------------| 1x 
  
A|-2-------5---------------5-|  
E|-----------------3---------| 1x  
 
  
 
A|-2-2-5---5-0-----------5-0--|  
E|---------------3-3----------| 2x  
 
 

	  

Search Paypal
auto scroll beats size up size down change color hide chords drawings
tab show chords e-chords YouTube Clip e-chords hide all tabs e-chords go to top tab