Face To Face

home > Face To Face

Ordinary Bass Tab

Face To Face

Difficulty: nolevelnolevel

tuner correct add songbook print version text version save to e-mail
chordsukulelecavacokeyboardtabbassdrumsharmonicsflute Guitar Pro
chords

Ordinary

  		

Intro 4x (4x guit. + 4x base) 
G-|----------------------------------| 
D-|----------------------------------| 
A-|--------------------------3-3-3-3-| 
E-|--5-5-5-5-0-0-0-0-1-1-1-1---------| 

Chorus 2x 
G-|------------| 
D-|------------| 
A-|------------| 
E-|---3~~-3~~--| 

INTRO 2X 
CHORUS 2X 

Verse (... Ordinary...) 
G-|-----------| 
D-|-----------| 
A-|-----------| 
E-|--1~~-1~~--| 

Refrain 2x 
G-|---------------------------------------------------------------------| 
D-|---------------------------------------------------------------------| 
A-|--3-3-3-3---------8-8--7-7--3-3-3-3--3-3-3-3-------------------------| 
E-|----------3-3-3-3----------------------------3-3-3-3--1-1-1-1-1-1-1--| 

INTRO 4x 
CHORUS 2x 
VERSE 
REFRAIN 2x 
INTRO 2x 

Bass solo: 
G----------------------------------------------------------------| 
D---------10-10-10--------10-10-10---------9-9-9-------7-7-7-----| 
A-10/12-------------12-10------------10-10---------10-8--------8-| 
E----------------------------------------------------------------| 

REFRAIN 2x 
VERSE 2x 
INTRO 2x 

Learn this song the bass solo is quite spiffy
*Nakedbassist

	  

Search Paypal
auto scroll beats size up size down change color hide chords drawings
tab show chords e-chords YouTube Clip e-chords hide all tabs e-chords go to top tab