Face To Face

home > Face To Face

Im Not Afraid Bass Tab

Face To Face

Difficulty: nolevelnolevel

tuner correct add songbook print version text version save to e-mail
chordsukulelecavacokeyboardtabbassdrumsharmonicsflute Guitar Pro
chords

Im Not Afraid

  		

Intro & Chorus 
G|--------------------------------------------------------------------------- 
D|--------------------------------------------------------------------------- 4x 
A|------------3-3-3-3-1-1-1-1-3-3-3-3---------------------------------------- 
E|-1-1-1-1------------------------------------------------------------------- 

G|--------------------------------------------------------------------------- 
D|--------------------------------------------------------------------------- 2x first time 
A|-7-7-7-7------------7-7-7-7--------------7-7-7-7--------------------------- 1x after Chorus 
E|------------7-7-7-7------------7-7-7-7------------5-5-5-5-6-6-6-6-7-7-7-7-- 

Verse 
G|--------------------------------------------------------------------------- 
D|--------------------------------------------------------------------------- 4x 
A|------------------------2-2-2-2-2------------------------------------------ 
E|-1-1-1-1-3-3-3-3----------------------------------------------------------- 

G|--------------------------------------------------------------------------- 
D|--------------------------------------------------------------------------- 
A|-5-5-5-5-3-3-3-3-5-5-5-5-3-3-3-3-5-5-5-5-3-3-3-3-1-1-1-1------------------- 
E|--------------------------------------------------------------------------- 

I dont like rappers
*NakedBassist

	  

Search Paypal
auto scroll beats size up size down change color hide chords drawings
tab show chords e-chords YouTube Clip e-chords hide all tabs e-chords go to top tab