Face To Face

home > Face To Face

Disconnected Bass Tab

Face To Face

Difficulty: nolevelnolevel

tuner correct add songbook print version text version save to e-mail
chordsukulelecavacokeyboardtabbassdrumsharmonicsflute Guitar Pro
chords

Disconnected

  		

Intro 
G:--------------------------------------------------------------- 
D:------------------------------2-2-2-4-2-1---------------------- 
A:7-7-7--------------------------------------2-4-6-4-2-1--------- 
E:-------7-7-7--4-4-4-2-2-2-------------------------------------- 

G:--------------------------------------------------------------- 
D:--------------------------------------------------------------- 
A:-777----------------------------------------------------------- 
E:-----777-444-222--(repeat a few times)------------------------- 

Verse and Chorus 
G:--------------------------------------------------------------- 
D:--------------------------------------------------------------- 
A:--------------------------------------------------------------- 
E:-0-0-0-7-7-7-4-4-4-2-2-2--------------------------------------- 

Once in a while B4 chorus and solo you can try this 
G:--------------------------------------------------------------- 
D:--------------------------------------------------------------- 
A:---------2-2-2--11-11-11-9-9-9--------------------------------- 
E:--0-0-0-------------------------------------------------------- 

Solo (I think it's 4 bars) 
G:--------------------------------------------------------------- 
D:--------------------------------------------------------------- 
A:---2--2----2--2----6--6--4--2-1-------------------------------- 
E:--0--0-2-2--2--44--4---4--------4------------------------------ 

There u have it and theres more on the way
*Nakedbassist

	  

Search Paypal
auto scroll beats size up size down change color hide chords drawings
tab show chords e-chords YouTube Clip e-chords hide all tabs e-chords go to top tab