Edguy

home > Edguy

Walk On Fighting Bass Tab

Edguy

Difficulty: EasyEasy

by eduardo%5Flyvio

tuner correct add songbook print version text version save to e-mail
chordsukulelecavacokeyboardtabbassdrumsharmonicsflute Guitar Pro
chords

Walk On Fighting

  		Transcribed by: AndrČ Baida from Brazil! 
Email: [email protected] 
 
Intro. 4x. 
 
G--------------------------------------------------------------------------|-- 
D-0-0-0-0-0-0-0-0-0-0-000-0-0-0-0-0-0-0-0-0-000-0-0-0-0-0-0-0-0-000-5-3-2--|-- 
A-------------------------------------------------------------------------3|-- 
E--------------------------------------------------------------------------|-- 
                                                                               
Riff 1 and Vocals. 
 
G---------------------------------------------------||-- 
D-----------------------------------5-3-2---2h3p3---||-- 
A-5-5-5-5-5-5-5-5-5-5-5-5-5-5-5-5-5-------3-------3-||-- 
E---------------------------------------------------||-- 
                                                                               
Bridge. 
 
G-------------------------------3-2------------------------------------------- 
D-----------------------------------5/7--------------------------------------- 
A--0----0-1-----1-0----0-1------------0-----0-1------1-0------1-1-1-1-3-3-3-3- 
E----------------------------------------------------------------------------- 
                                                                               
Chorus. 
 
G------------------------------------------------------------------------------ 
D--------------------------------------------------------------------------5-3- 
A--5-5-5-5-5-5-5-5-3-3-3-3-3-3-3-3-----------------1-1-1-1-1-1-1-1-5-5-5-5----- 
E----------------------------------3-3-3-3-3-3-3-3----------------------------- 
                                                                              
G-------------------------------------------------||-- 
D--2----------------------------------------------||-- 
A----3--3-3-3-3-3-3-3-3-3---------1-1-1-1-3-3-3-3-||-- 
E-------------------------1-1-1-1-----------------||-- 
 
Repeat Vocals, Bridge and Chorus (2x)and then: 
 
Pre Solo                                                                               
 
G------------------------------------------------------------------||-- 
D------------------------------3-2---3-2--------3--2---------3-2---||-- 
A--1---1---1-0-1-3-1-0--3---3------3-----3--5--------3---5-------3-||-- 
E------------------------------------------------------------------||-- 
                                                                               
Solo 
 
G---------------------------------------------------------------------------- 
D---------------------------------------------------------------------------- 
A--1-1-1-1-1-1-1-1-1-1-1-1-0-0-0-0---------------------------------6-6-6-6-6- 
E----------------------------------3-3-3-3-3-3-3-3-3-3-3-3-1-1-1-1----------- 
                                                                               
G-------------------------------------------------------||-- 
D-------------------------------------------------------||-- 
A-6-6-6-6-6-6-6-1-1-1-1-3-3-3-3-3-3-3-3-3-3-3-3-3-3-3-3-||-- 
E-------------------------------------------------------||-- 
 
Pre Chorus II.                                                                               
 
G-------|-------|--5-3-2-3///-||-- 
D-------|-------|-------------||-- 
A---5---|---3---|-------------||-- 
E-------|-------|-------------||-- 
                                                                               
Chorus II 2x. 
 
G------------------------------------------------------------------------------ 
D--------------------------------------------------------------------------7-5- 
A--7-7-7-7-7-7-7-7-5-5-5-5-5-5-5-5-----------------3-3-3-3-3-3-3-3-7-7-7-7----- 
E----------------------------------5-5-5-5-5-5-5-5----------------------------- 
                                                                              
G-------------------------------------------------||-- 
D--4----------------------------------------------||-- 
A----5--5-5-5-5-5-5-5-5-5---------3-3-3-3-5-5-5-5-||-- 
E-------------------------3-3-3-3-----------------||-- 
 
End. 
 
G----||-- 
D----||-- 
A----||-- 
E--0-||-- 
	  

Search Paypal
auto scroll beats size up size down change color hide chords drawings
tab show chords e-chords YouTube Clip e-chords hide all tabs e-chords go to top tab