Edguy

home > Edguy

Vain glory opera Bass Tab

Edguy

Difficulty: nolevelnolevel

by eduardo%5Flyvio

tuner correct add songbook print version text version save to e-mail
chordsukulelecavacokeyboardtabbassdrumsharmonicsflute Guitar Pro
chords

Vain glory opera

  		Bass tab by Hern.n Reynoso. 
E-mail: [email protected] 
From Argentina. 
 
Keyboard intro 
G: |-----------------|---------------------------------------------------------------------| 
D: |-----------------|---------------------------------------------------------------------|         
A: |-----------------|-------------------6-6-6-6-6-6-6-6-----------------1-1-1-1-----------| 
E: |-----------------|---3-3-3-3-3-3-3-3-----------------1-1-1-1-1-1-1-1---------1-1-1-1---| 
 
G: |-----------------------------------------------------------------------| 
D: |-----------------------------------------------------------------------|         
A: |-------------------6-6-6-6-6-6-6-6-----------------1-1-1-1-------------| 
E: |---3-3-3-3-3-3-3-3-----------------1-1-1-1-1-1-1-1---------1-1-1-1-3---| 
 
Vocals 
        "The prayers..."     
G: |---------------------------------------------------------------------| 
D: |---------------------------------------------------------------------|        
A: |-------------------6-6-6-6-6-6-6-6-----------------1-1-1-1-----------| 
E: |---3-3-3-3-3-3-3-3-----------------1-1-1-1-1-1-1-1---------1-1-1-1---|   
 
        "Seven at one..." 
G: |---------------------------------------------------------------------| 
D: |---------------------------------------------------------------------|        
A: |-------------------6-6-6-6-6-6-6-6-----------------1-1-1-1-----------| 
E: |---3-3-3-3-3-3-3-3-----------------1-1-1-1-1-1-1-1---------1-1-1-1---| 
 
Bridge 
      "But behind my   enemy?s eyes..." 
G: |----------------------------------------| 
D: |----------------------------------------|                         
A: |---3333333333333333---------------------| 
E: |-------------------3-3-3-3-3-3-3-3-3---| 
 
"A soul in disguise..."    "Not only lies" 
G: |--------------------|-------------------------------| 
D: |--------------------|-------------------------------|                 
A: |--------------------|---------------------------1---| 
E: |--------------------|---4-4-4-4-4-4-4-4-44444444----| 
 
Chorus 
        "We live to fight..." 
G: |---------------------------------------------------------------------| 
D: |---------------------------------------------------------------------|    
A: |---3-3-3-3---------1-1-1-1-----1-1-3-3-3-3---------1-1-1-1-1-1---1---| 
E: |-----------1-1-1-1---------4-4-------------4-4-4-4-------------4-----| 
 
        "We live to fight..." 
G: |---------------------------------------------------------------| 
D: |---------------------------------------------------------------|          
A: |---3-3-3-3---------1-1-1-1-----1-1-3-3-3-3---------1-1-1-1-1---| 
E: |-----------1-1-1-1---------4-4-------------4-4-4-4-------------| 
 
G: |------------------| 
D: |---5--------3-5---|                                            
A: |---3--------3-3---| 
E: |------------------| 
 
Vocals 
        "What?s hell..." 
G: |---------------------------------------------------------------------| 
D: |---------------------------------------------------------------------|            
A: |-------------------6-6-6-6-6-6-6-6-----------------1-1-1-1-----------| 
E: |---3-3-3-3-3-3-3-3-----------------1-1-1-1-1-1-1-1---------1-1-1-1---|   
 
        "What?s a fall..." 
G: |---------------------------------------------------------------------| 
D: |---------------------------------------------------------------------|          
A: |-------------------6-6-6-6-6-6-6-6-----------------1-1-1-1-----------| 
E: |---3-3-3-3-3-3-3-3-----------------1-1-1-1-1-1-1-1---------1-1-1-1---| 
 
Bridge 
      "But behind my   enemy?s eyes..." 
G: |----------------------------------------| 
D: |----------------------------------------|              
A: |---3333333333333333---------------------| 
E: |-------------------3-3-3-3-3-3-3-3-3---| 
 
"A soul in disguise..."    "Not only lies"  
G: |--------------------|-------------------------------| 
D: |--------------------|-------------------------------|               
A: |--------------------|---------------------------1---| 
E: |--------------------|---4-4-4-4-4-4-4-4-44444444----| 
 
Chorus 
        "We live to fight..." 
G: |---------------------------------------------------------------------| 
D: |---------------------------------------------------------------------|       
A: |---3-3-3-3---------1-1-1-1-----1-1-3-3-3-3---------1-1-1-1-1-1---1---| 
E: |-----------1-1-1-1---------4-4-------------4-4-4-4-------------4-----| 
 
        "We live to fight..." 
G: |---------------------------------------------------------------| 
D: |---------------------------------------------------------------|               
A: |---3-3-3-3---------1-1-1-1-----1-1-3-3-3-3---------1-1-1-1-1---| 
E: |-----------1-1-1-1---------4-4-------------4-4-4-4-------------| 
 
Keyboard melody 
G: |---------------------------------------------------------------------| 
D: |---------------------------------------------------------------------|              
A: |-------------------6-6-6-6-6-6-6-6-----------------1-1-1-1-----------| 
E: |---3-3-3-3-3-3-3-3-----------------1-1-1-1-1-1-1-1---------1-1-1-1---| 
 
G: |---------------------------------------------------------------------| 
D: |---------------------------------------------------------------------|       
A: |-------------------6-6-6-6-6-6-6-6-----------------1-1-1-1-----------| 
E: |---3-3-3-3-3-3-3-3-----------------1-1-1-1-1-1-1-1---------1-1-1-1---| 
 
Solo 
G: |----------------------------------------------------------------------| 
D: |----------------------------------------------------------------------|         
A: |---3333333333333333--------------------------------66666666-----------| 
E: |-------------------44444444444444446666666666666666--------66666666---| 
 
G: |----------------------------------------------------------------------| 
D: |----------------------------------------------------------------------|         
A: |---3333333333333333--------------------------------66666666-----------| 
E: |-------------------44444444444444446666666666666666--------66666666---| 
 
Bridge 
      "But behind my   enemy?s eyes" 
G: |---------------------------------------| 
D: |---------------------------------------|                          
A: |---3333333333333333--------------------| 
E: |-------------------3-3-3-3-3-3-3-3-3---| 
 
"A soul in disguise..."    "NOT ONLY LIES!!!"   
G: |--------------------|-------------------------------| 
D: |--------------------|-------------------------------|          
A: |--------------------|---------------------------1---| 
E: |--------------------|---4-4-4-4-4-4-4-4-44444444----| 
 
Chorus 
        "We live to fight..." 
G: |---------------------------------------------------------------------| 
D: |---------------------------------------------------------------------|      
A: |---3-3-3-3---------1-1-1-1-----1-1-3-3-3-3---------1-1-1-1-1-1---1---| 
E: |-----------1-1-1-1---------4-4-------------4-4-4-4-------------4-----| 
 
Repeat the Chorus twice and then play it faster till the end. 
 
End. 
 
Note: sticky melody, easy rythm, great band. Please, mail me if you find any mistake. 
	  

Search Paypal
auto scroll beats size up size down change color hide chords drawings
tab show chords e-chords YouTube Clip e-chords hide all tabs e-chords go to top tab