Edguy

home > Edguy

The Devil And The Savant Bass Tab

Edguy

Difficulty: nolevelnolevel

by eduardo%5Flyvio

tuner correct add songbook print version text version save to e-mail
chordsukulelecavacokeyboardtabbassdrumsharmonicsflute Guitar Pro
chords

The Devil And The Savant

(Edguy)

  		Transcribed by: AndrČ Baida from BRAZIL! 
Email: [email protected] 
 
Tune: Half-Step Down 
 
Note: "*"s are used to represent the same note X times (listen to the song) 
 
 
After Keyboards 
 
Gb------|-----|--- 
Db------|-----|--- 
 
Ab------|-----|--- 
Eb---3--|--5--|--- 
                                  
Intro 
 
Gb------------------|------------------|----|--- 
Db------------------|------------------|----|--- 
Ab--5*--1*----------|--5*--1*----------|-1*-|--- 
Eb----------3*--5*--|----------3*--5*--|----|--- 
                                     
Vocals 
 
Gb------------------|-------------------------|--- 
Db------------------|-------------------------|--- 
Ab---5*--3*--1*--3*-|--5*--3*--1*--0-1-3-1-0--|--- 
Eb------------------|-------------------------|--- 
                               
Bridge 
 
Gb-----------------------|----------------------------------|--- 
Db-----------------------|----------------------7*----------|--- 
Ab-----------6*--1*------|------------------5-7-------------|--- 
Eb---3*--1*----------1*--|--3*--5*--6*--5*----------6*--8*--|--- 
                                          
Chorus 
 
Gb------------------|-----------------------------|-----------------|-- 
Db------------------|-----------------------3--2--|-----------------|-- 
Ab--5*--1*------3*--|--5*--3*------1*--3*---------|--5*--1*-----3*--|-- 
Eb----------1*------|----------1*-----------------|----------1*-----|-- 
                         
Gb---------------------------------------3*-|--- 
Db-------------------------------------3----|--- 
Ab--5*-3*----1*--3*-5-7-8-8-7-5-3--1*-------|--- 
Eb--------1*--------------------------------|--- 
                                     
Vocals II 
 
Gb------------------|-----------------------------------------|-- 
Db------------------|------8-7------2-3-5-3-2-----------------|-- 
Ab--5*--3*--1*--3*--|--5*-------3*-------------1*--0-1-3-1-0--|-- 
Eb------------------|-----------------------------------------|-- 
                                         
Bridge II 
 
Gb-----------------------|---------------------------------------------|-- 
Db-----------------------|----------7-8-10-12-13-12-10-12--------------|-- 
Ab-----------6*--1*------|--------7------------------------0*--1*--3*--|-- 
Eb---3*--1*----------1*--|-3*-5*---------------------------------------|-- 
                                                                               
 
Repeat Chorus, Intro and then: 
 
Solo 
 
Gb------------------------------|--------------------------------------------|-- 
Db-------5-3-2------------------|---------------------8*--8-6-5-8-6-5-6-8----|-- 
Ab-------------3--5*-6*-8*------|------3*----------8-----------------------3-|-- 
Eb---3*---------------------2*--|--3*------4*--6*----------------------------|-- 
                                                                     
Slow Chorus 
 
Gb------|-----|-------|----------------------------------------------|-- 
Db------|-----|-------|-------------5------------8-10-8-7-8-7--------|-- 
Ab--3---|--6--|-6--1--|--3*--5*-6*-----8--6--8*---------------8--1*--|-- 
Eb----4-|-----|-------|----------------------------------------------|-- 
                                           
Chorus II 
 
Gb----------------------------------------------|-------------------|-- 
Db----------------------------------------3--2--|-------------------|-- 
Ab---5*--1*------3*--5*--3*------1*--3*---------|--5---5-7-8-7-5----|-- 
Eb-----------1*--------------1*-----------------|----------------8--|-- 
                       
Gb--------------------|----------------------------------------|-----|-- 
Db--------------------|----------------------------------------|-----|-- 
Ab--------------------|------3*--5*--3*------3*--5-7-8-7-5-3-1-|--5*-|-- 
Eb--6---5-6-8-6-5-3---|--1*--------------1*--------------------|-----|-- 
            
End.           
	  

Search Paypal
auto scroll beats size up size down change color hide chords drawings
tab show chords e-chords YouTube Clip e-chords hide all tabs e-chords go to top tab