Edguy

home > Edguy

Sacred Hell Bass Tab

Edguy

Difficulty: nolevelnolevel

by eduardo%5Flyvio

tuner correct add songbook print version text version save to e-mail
chordsukulelecavacokeyboardtabbassdrumsharmonicsflute Guitar Pro
chords

Sacred Hell

(Edguy)

  		Transcribed by: AndrČ Baida from BRAZIL! 
Email: [email protected] 
 
Hi there folks! What's up?? 
 
Well, here I am again with a new bass tab....hope that you all enjoy!  
Feel free to send me an email....stay savage! 
AndrČ, CounterFreak 
 
Tune: Half-Step Down! 
 
Note: "*"s are used to represent the same note X times (listen to the song) 
 
Intro. 
                                                                            
Gb------------------------------||--- 
Db------------------------------||--- 
Ab--3*------3*-----3*----3*-----||--- 
Eb------4*-----3*-----4*----3*--||--- 
                                                                               
Vocals I 
 
Gb-----|-----|-----|-----|--- 
Db-----|-----|-----|-----|--- 
Ab--3--|-----|--3--|-----|--- 
Eb-----|--4--|-----|--3--|--- 
 
Vocals II 
 
Gb------------------------------||--- 
Db------------------------------||--- 
Ab--3*------3*-----3*----3*-----||--- 
Eb------4*-----3*-----4*----3*--||--- 
 
Bridge. 
 
Gb-------------|------------|-----------|-----------|--- 
Db-------------|------------|-----------|-----------|--- 
Ab----------3*-|---------3*-|--------3*-|-----------|--- 
Eb--4*--6*-----|-4*--6*-----|4*--6*-----|4*--6*--3*-|--- 
                                                                               
Chorus. 
						---> End of the Chorus 
Gb-----------------------------||----|--- 
Db-----------------------------||----|--- 
Ab--3*-1-3*----6*-----3*-------||-3*-|--- 
Eb----------4*----3*-----4*-6*-||----|--- 
                                                                               
Repeat Vocals II, Bridge and Chorus 
 
Riff I 
 
Gb-----------||------------------------------|----||--- 
Db-----------||------------------------------|----||--- 
Ab---3--1--3-||--3---3---3--3--3--3--3--3--3-|-3*-||--- 
Eb-----------||------------------------------|----||--- 
                                                                               
Solo I 
 
Gb-------------------------||--- 
Db-------------------------||--- 
Ab---3*---6*---------------||--- 
Eb-------------3*---4*--6*-||--- 
                                                                               
Solo II 
 
Gb------------------------||--- 
Db------------------------||--- 
Ab--3*-5/6*-8/10*-11*-13*-||--- 
Eb------------------------||--- 
                                                                               
Solo III 
 
Gb-----------------||--- 
Db-----------------||--- 
Ab--3*-------------||--- 
Eb-----3*--4*--3*--||--- 
                                                                               
Repeat Vocals II, Bridge, Chorus and then repeat this riff: 
 
---> Listen the song to figure out the riff. 
 
Gb---------||--- 
Db---------||--- 
Ab--3-1-3*-||--- 
Eb---------||--- 
                                                                               
End. 
	  

Search Paypal
auto scroll beats size up size down change color hide chords drawings
tab show chords e-chords YouTube Clip e-chords hide all tabs e-chords go to top tab