Edguy

home > Edguy

Paradise Bass Tab

Edguy

Difficulty: nolevelnolevel

by eduardo%5Flyvio

tuner correct add songbook print version text version save to e-mail
chordsukulelecavacokeyboardtabbassdrumsharmonicsflute Guitar Pro
chords

Paradise

(Edguy)

  		Transcribed by: AndrČ Baida from BRAZIL! 
Email: [email protected] 
 
Standard Tunning! 
 
 
 
Intro 2X 
 
G-----------------------------||--- 
D-----------------------------||--- 
A--2----2-2---2-2----5--4--0--||--- 
E-----------------------------||--- 
                                                            
Bass Solo 
 
G-----6-7-9-7-6-7-6-7-9-7-6--|----6-7-9-7-9-11-9-7-9-7-6--|--- 
D--9-------------------------|-9--------------------------|--- 
A----------------------------|----------------------------|--- 
E----------------------------|----------------------------|--- 
                                                                            
G-------|-------------|--- 
D-------|-------------|--- 
A-------|---5-----7---|--- 
E---2---|-------------|--- 
                              
Riff I 
 
G--------------------||--- 
D--------------------||--- 
A-------------5*-----||--- 
 
E--2*----------------||--- 
                                              
Vocals 
 
G---------------|------------|--------------|------||--- 
D---------------|------------|--------------|------||--- 
A----------4----|--------4---|-------4------|-5*---||--- 
 
E---2*-------5--|-2*-------5-|-2*-------5---|------||--- 
                
Pre Chorus 
 
G-------|---------------|--------|--- 
D-------|---------------|--------|--- 
A-------|---------------|--------|--- 
E--2*---|---3------5----|---2----|--- 
                                                          
Chorus 
 
G-------------------------|-------------------|------------|--- 
D-------------------------|-------------------|------------|--- 
A---2*-----5--------------|--2*----5*---------|------------|--- 
E----------------3----5---|--------------5*---|--3*----5*--|--- 
 
                                                                          
Riff II 
 
G-------------------------|--------------------||----------|------------|--- 
D-------------------------|--------------------||----------|------------|--- 
A--2*----5*---------------|--2*----------------||----------|---5-----7--|--- 
E--------------3*----0*---|-------0*---5*--3*--||---2------|------------|--- 
                                    
Repeat Riff I, Vocals, Pre Chorus, Chorus and then: 
 
G-----------------------------------||--- 
D-----------------------------------||--- 
A-----------------------------------||--- 
E---0-------------------------3--2--||--- 
                     
Bass Interlude 
 
G---------------------------4--5--4-----||-------------|--- 
D--------2---0-----2--4--5-----------5--||-------------|--- 
A---------------------------------------||--3------5---|--- 
E---0-----------------------------------||-------------|--- 
                                            
"Watch out for insanity" 
 
G------------||--- 
D------------||--- 
A------------||--- 
E---0--0--0--||--- 
 
                                                                          
Solo 
 
G-----------------------------||--- 
D-----------------------------||--- 
A--------2-2-2--0*------------||--- 
E---0*----------------3*--2*--||--- 
 
Solo II                                            
 
G-------------------------------||--- 
 
D-------------------------------||--- 
A-----------3*---------5*-------||--- 
E---0*--------------------------||--- 
                              
Pre Riff III 
 
G-------|--------|--- 
D-------|--------|--- 
A-------|--------|--- 
E--0*---|---12\--|--- 
                                                             
Riff III 2X 
 
G---------------------------------|-----------------------------|-- 
D---------------------------------|-------------------------5---|-- 
A-------------7--5-----5----------|----------7--5-----5--7------|-- 
E--0-0-0------------7------7--5---|--0-0-0---------7------------|-- 
                                                       
G---------------------------------|------------------------------|--- 
D---------------------------------|------------------------------|--- 
A-------------7--5-----5----------|------------------------------|--- 
E--0-0-0------------7------7--5---|--0-0-0-------------12\-------|--- 
                                                        
then: 
 
G----------|--------------------------|--- 
D----------|--------------------------|--- 
A----------|----------------5-----7---|--- 
E---0*-----|----2---------------------|--- 
 
Repeat Riff I, Pre Chorus, Chorus and then:                                     
 
G-------|--- 
D-------|--- 
 
A-------|--- 
E--0*---|--- 
                                              
End. 
	  

Search Paypal
auto scroll beats size up size down change color hide chords drawings
tab show chords e-chords YouTube Clip e-chords hide all tabs e-chords go to top tab