Edguy

home > Edguy

New Age Messiah Bass Tab

Edguy

Difficulty: nolevelnolevel

by eduardo%5Flyvio

tuner correct add songbook print version text version save to e-mail
chordsukulelecavacokeyboardtabbassdrumsharmonicsflute Guitar Pro
chords

New Age Messiah

(Edguy)

  		Transcribed by: AndrČ Baida from BRAZIL! 
Email: [email protected] 
 
Tune: Half-Step Down 
 
Note: "*"s are used to represent the same note X times (listen to the song) 
 
Intro 
 
Gb-----------------------------------|------------------------------|--- 
Db-----------------------------------|------------------------------|--- 
Ab--------1*---5*---3*-------1*--3*--|------1*--5*--3*----------3*--|--- 
Eb---1*------------------1*----------|--5*--------------3*--1*------|--- 
                                                 
Gb---------------|-----|--- 
Db---3--2--------|-----|--- 
Ab----------5*---|--3--|--- 
Eb---------------|-----|--- 
                                                                        
Vocals 
 
Gb---------------------------------------||--- 
Db---------------------------------------||--- 
Ab------3--3---5*------3--5*---5-7-8--3--||--- 
Eb--1*--------------6--------------------||--- 
                                                                               
 
Bridge 
 
Gb------|--------------------|---------------------|--- 
Db------|--------------------|---------------------|--- 
Ab---3--|--------1*---5*-----|--3*---------1*--3*--|--- 
Eb------|---3*-----------6-6-|-------3*------------|--- 
                                                       
Chorus 
 
Gb-----------------------------------|------------------------------|--- 
Db-----------------------------------|------------------------------|--- 
Ab--------1*---5*---3*-------1*--3*--|------1*--5*--3*----------3*--|--- 
Eb---1*------------------1*----------|--5*--------------3*--1*------|--- 
 
Gb---------------|-----|--- 
Db---3--2--------|-----|--- 
Ab----------5*---|--3--|--- 
Eb---------------|-----|--- 
 
Vocals II 
 
Gb----|-------|----------------------------||--- 
Db----|-------|----------------------------||--- 
Ab----|-----3-|--5*------3--5*---5-7-8--3--||--- 
Eb--1-|--1----|-------6--------------------||--- 
                                                                  
Bridge 
 
Gb------------------------|---------------------|--- 
Db------------------------|---------------------|--- 
Ab---3*-------1*---5*-----|--3*---------1*--3*--|--- 
Eb-------3*-----------6-6-|-------3*------------|--- 
                                                    
Chorus 
 
Gb-----------------------------------|-----------------|-------------||--- 
Db-----------------------------------|-----------------|-------------||--- 
Ab--------1*---5*---3*-------1*--3*--|------1*--5*--3*-|---------3*--||--- 
Eb---1*------------------1*----------|--5*-------------|-3*--1*------||--- 
 
Solo 
 
Gb-----------------------|----------------------|--- 
Db-----------------------|----------------------|--- 
Ab---------------3*------|--------------3*--5*--|--- 
Eb---5*--3*--1*------3*--|--5*--3*--1*----------|--- 
                
Solo II 
 
 
Gb---------------------------||--- 
Db---------------------------||--- 
 
Ab--3*---------------3*------||--- 
Eb------3*--5*--1*-------3*--||--- 
 
                                                                          
"Oooooooooohhh Ohhhhh" 
 
Gb-----|----|---|----|---|----|----------------|--------|---|---|--- 
Db-----|----|---|----|---|----|----------2-3-5-|-3-2----|---|---|--- 
Ab---3-|----|---|----|-3-|----|--3---3-5-------|-----5--|-1-|-3-|--- 
Eb-----|--3-|-5-|--1-|---|--3-|----------------|--------|---|---|--- 
                                                     
Vocals III						|-> Choir part 
 
Gb-----------------------------||----|----------|----------|--- 
Db-----------------------------||----|----------|----------|--- 
Ab-------3*--5*--1*--------3*--||--5-|----------|-3*---5*--|--- 
Eb---1*---------------1*-------||----|----------|----------|--- 
                                            
Chorus III 
 
Gb-------------------------------|------------------------------|-------------|-- 
Db-------------------------------|------------------------------|-------------|-- 
Ab-------3*--7*--5*------3*--5*--|--2*--3*--7*--5*----------5*--|----------5*-|-- 
Eb---3*--------------3*----------|------------------5*--3*------|--5*--3*-----|-- 
                                                        
Final Riff 
 
Gb--------|-------------------------------------------||-----|--- 
Db---5--4-|-------------------------------------------||-----|--- 
Ab--------|-7*--3--7--5*--3--5---7*---3--3--5*---3--5-||-----|--- 
Eb--------|-------------------------------------------||--0--|--- 
                                                           
End. 
	  

Search Paypal
auto scroll beats size up size down change color hide chords drawings
tab show chords e-chords YouTube Clip e-chords hide all tabs e-chords go to top tab