Edguy

home > Edguy

Hymn Bass Tab

Edguy

Difficulty: nolevelnolevel

by eduardo%5Flyvio

tuner correct add songbook print version text version save to e-mail
chordsukulelecavacokeyboardtabbassdrumsharmonicsflute Guitar Pro
chords

Hymn

(Edguy)

  		Transcribed by: AndrČ Baida from BRAZIL!! 
Email: [email protected] 
 
Tune: E A D G 
 
After Keyboard! 
 
Chorus. 
 
|---------------------------------------------------------------------------| 
|---------------------------------------------------------------------------| 
|-----------------2-2-2-2-2-2-2-2-3-3-3-3-3-3-3-3---------------------------| 
|-0-0-0-0-0-0-0-0---------------------------------3-3-3-3-2-2-2-2-0-0-0-0-0-| 
                                                                               
|-------------------------------------------------------| 
|-------------------------------------------------------| 
|-------2-2-2-2-2-2-2-2-3-3-3-3-3-3-3-3-5-5-5-5-5-5-5-5-| 
|-0-0-0-------------------------------------------------| 
                                                                               
|---------------------------------------------------------------------------| 
|---------------------------------------------------------------------------| 
|-----------------2-2-2-2-2-2-2-2-3-3-3-3-3-3-3-3---------------------------| 
|-0-0-0-0-0-0-0-0---------------------------------3-3-3-3-2-2-2-2-0-0-0-0-0-| 
                                                                               
|-------------------------------------------------------| 
|-------------------------------------------------------| 
|-------2-2-2-2-2-2-2-2-3-3-3-3-3-3-3-3-5-5-5-5-5-5-5-5-| 
|-0-0-0-------------------------------------------------| 
 
|-----------------------------------------| 
|-----------------------------------------| 
|-----------------------------------------| 
|-3-3-3-3-3-3-3-3-3-3-3-3-3-3-3-3-3-3-3-3-| 
                           
Vocals.                                                     
 
|---------------------------------------------------------------------------| 
|---------------------------------------------------------------------------| 
|---------------------------------------------------------------------------| 
|-1-1-1-1-1-1-1-1-1-1-1-1-3-3-3-3-3-3-3-3-3-3-3-3-1-1-1-1-1-1-1-1-1-1-1-1-3-| 
                                                                               
|-------------------------------|---------------------------------------------| 
|-------------------------------|---------------------------------------------| 
|-------------------------------|---------------------------------------------| 
|-3-3-3-3-3-3-3-3-3-3-3-3-3-3-3-|-1-1-1-1-1-1-1-1-1-1-1-1-3-3-3-3-3-3-3-3-3-3-| 
                                                                               
|-----------------------------------------------------------------------------| 
|-----------------------------------------------------------------------------| 
|-----------------------------------------------------5-5-5-5-5-5-5-5-5-5-5-5-| 
|-3-3-1-1-1-1-1-1-1-1-1-1-1-1-3-3-3-3-3-3-3-3-3-3-3-3-------------------------| 
 
Repeat Chorus, Vocals, Chorus and then: 
 
Bridge. 
                                                                               
|---------------------------------------------------------------------------| 
|---------------------------------------------------------------------------| 
|-----------------------------------------------------------------0-0-0-0-0-| 
|-3-3-3-3-3-3-3-3-3-3-3-3-3-3-3-3-5-5-5-5-5-5-5-5-5-5-5-5-5-5-5-5-----------| 
                                                                               
|-------------------------------------------------------| 
|-------------------------------------------------------| 
|-0-0-0-0-0-0-0-0-0-0-0-3-3-3-3-3-3-3-3-----------------| 
|---------------------------------------1-1-1-1-1-1-1-1-|                                                                               
 
Solo. 
 
|---------------------------------------------------------------------------| 
|-3-2-0---------------------------------------------------------------------| 
|-------3-3-3-3-3-3-3-3-3-3-3-3-3-3-3-3-5-5-5-5-5-5-5-5-5-5-5-5-5-5-5-5-1-1-| 
|---------------------------------------------------------------------------| 
                                                                               
|-------------------------------------------------------------|---------------| 
|-------------------------------------------------------------|-3-2-0---------| 
|-1-1-1-1-1-1-1-1-1-1-1-1-1-3-3-3-3-3-3-3-3-------------------|-------3-3-3-3-| 
|-------------------------------------------1-1-1-1-1-1-1-1-1-|---------------| 
                                                                               
|-----------------------------------------------------------------------------| 
|-----------------------------------------------------------------------------| 
|-3-3-3-3-3-3-3-3-3-3-3-3-5-5-5-5-5-5-5-5-5-5-5-5-5-5-5-1-1-1-1-1-1-1-1-1-1-1-| 
|-----------------------------------------------------------------------------| 
                                                                               
|-------------------------------------------------| 
|-------------------------------------------------| 
|-1-1-1-1-1-3-3-3-3-3-3-3-3-3-3-3-3---3----3----3-| 
|-------------------------------------------------| 
 
Bass Interlude.  
                                                    
|----------------------------------------------------------------------------------| 
|----------------------------------------------------------------------------------|  
|-----------2222-2222-3333-3333----------------------2222-2222-3333-3333-5555-5555-|   
|-0000-0000---------------------3333-2222--0000-0000-------------------------------| 
                           
|----------------------------------------------------------------------------------| 
|----------------------------------------------------------------------------------|  
|-----------2222-2222-3333-3333----------------------2222-2222-3333-3333-5555-5555-|   
|-0000-0000---------------------3333-2222--0000-0000-------------------------------| 
 
Chorus II. 
 
|---------------------------------------------------------------------------| 
|---------------------------------------------------------------------------| 
|-----------------4-4-4-4-4-4-4-4-5-5-5-5-5-5-5-5---------------------------| 
|-2-2-2-2-2-2-2-2---------------------------------5-5-5-5-4-4-4-4-2-2-2-2-2-| 
                                                                               
|--------------------------------------------------------|| 
|--------------------------------------------------------|| 2X. 
|-------4-4-4-4-4-4-4-4-5-5-5-5-5-5-5-5-7-7-7-7-7-7-7-7--|| 
|-2-2-2--------------------------------------------------|| 
                                                                               
 
|---------------------------------------------------------------------------| 
|---------------------------------------------------------------------------| 
|-----------------------------------4-4-4-4-4-4-4-4-4-4-4-4-4-4-4-4-4-5-5-5-| 
|-2-2-2-2-2-2-2-2-2-2-2-2-2-2-2-2-2-----------------------------------------| 
                                                                               
|-----------------------------------------------------------------------------| 
|-----------------------------------------------------------------------------| 
|-5-5-5-5-5-5-5-5-5-5-5-5-5---------------------------------------------------| 
|---------------------------5-5-5-5-5-5-5-5-4-4-4-4-4-4-4-4-2-2-2-2-2-2-2-2-2-|                                                                               
 
|-----------------------------------------------------------------------------| 
|-----------------------------------------------------------------------------| 
|---------------4-4-4-4-4-4-4-4-4-4-4-4-4-4-4-4-5-5-5-5-5-5-5-5-5-5-5-5-5-5-5-| 
|-2-2-2-2-2-2-2---------------------------------------------------------------| 
                                                                               
|-----------------------------------|| 
|-----------------------------------|| 
|-5-7-7-7-7-7-7-7-7-7-7-7-7-7-7-7-7-|| 
|-----------------------------------|| 
                                                                               
After Chorus: 
 
|-------------------------------------------------------------------| 
|-----------------------------------------------------------------4-| 
|-5-----5-------7-----7-----9999999999999999999999999999999999999-4-| 
|-----------------------------------------------------------------2-| 
                                                                               
 
End. 
	  

Search Paypal
auto scroll beats size up size down change color hide chords drawings
tab show chords e-chords YouTube Clip e-chords hide all tabs e-chords go to top tab