Edguy

home > Edguy

Holy Water Bass Tab

Edguy

Difficulty: ExpertExpert

by eduardo%5Flyvio

tuner correct add songbook print version text version save to e-mail
chordsukulelecavacokeyboardtabbassdrumsharmonicsflute Guitar Pro
chords

Holy Water

(Edguy)

  		Transcribed by: AndrČ Baida from BRAZIL! 
Email: [email protected] 
 
Tune: Half-Step Down 
 
 
Note: "*"s are used to represent the same note X times (listen to the song) 
 
Slow Intro 
 
Gb--------------------|--- 
Db------------9*--7*--|--- 
Ab---7*--10*----------|--- 
Eb--------------------|--- 
               
Fast Intro 
 
Gb----------------------|-- 
Db----------------------|-- 
Ab-------------2*---0*--|-- 
Eb---0*---3*------------|-- 
 
Vocals 
 
Gb---------------|------------|--- 
Db---------------|------------|--- 
Ab-----------2*--|---------5*-|--- 
Eb---0*--3*------|--0*--3*----|--- 
              
Bridge 
 
Gb-------|--- 
Db-------|--- 
Ab---0*--|--- 
Eb-------|--- 
          
Chorus 
 
Gb--------------------------|--- 
Db--------------------------|--- 
Ab-------------2*--4-4--5*--|--- 
Eb---2*---0*----------------|--- 
                                                                            
Repeat Vocals, Bridge and Chorus, then, enter with the drums: 
                                                                               
Solo 
 
Gb--------------|--------------|-------------|-------------|--- 
Db--------------|--------------|-------------|-------------|--- 
Ab--7-7--7-7-7--|--5-5--5-5-5--|--7-7--7-7-7-|-7-7--7-7-7--|--- 
Eb--------------|--------------|-------------|-------------|--- 
                       
Chorus II 
 
Gb-----|-------------------------|--- 
Db-----|-------------------------|--- 
Ab-----|-------2*---4-4-5*---7*--|--- 
Eb--2--|--0*---------------------|--- 
                                                                  
 
Repeat until fade out. 
End. 
	  

Search Paypal
auto scroll beats size up size down change color hide chords drawings
tab show chords e-chords YouTube Clip e-chords hide all tabs e-chords go to top tab