Edguy

home > Edguy

Golden Dawn Bass Tab

Edguy

Difficulty: nolevelnolevel

by eduardo%5Flyvio

tuner correct add songbook print version text version save to e-mail
chordsukulelecavacokeyboardtabbassdrumsharmonicsflute Guitar Pro
chords

Golden Dawn

(Edguy)

  		Transcribed by: AndrČ Baida from BRAZIL! 
Email: [email protected] 
 
Tune: Half-Step Down 
 
Note: "*"s are used to represent the same note X times (listen to the song) 
 
 
Intro 
 
Gb-----|--------|---------|------------------|--- 
Db-----|--------|---------|------------------|--- 
Ab-----|--------|---------|------------------|--- 
Eb--5--|--3--5--|---3--5--|--3-3-3-3-3-3-3-3-|--- 
                                                                               
 
							|-> Repeat 
Gb---------------------------------------||--- 
Db---------------------------------------||--- 
Ab---------------3-2-0-------------------||--- 
Eb---5*--1*--3*--------3--5*--3--1*--3*--||--- 
                                                                               
 
 
Gb---------------|-----|-------|--- 
Db---------------|-----|-------|--- 
Ab---------------|-----|---3-2-|--- 
Eb--0*--1*--3*---|--5--|-------|--- 
                                                                      
Vocals 
 
Gb-----------------------------------||-----------------|--- 
Db-----------------------------------||-----------------|--- 
 
Ab-------------5-----------------5*--||-----------------|--- 
Eb--5*---5--7--------0*---0-2-3------||-5*--3*--1*--0*--|--- 
                       
Bridge 
 
Gb--------------------------------------------------|--- 
Db--------------------------------------------------|--- 
Ab---5*--3--5*---3*---------5*--3--5*---0*--1*--3*--|--- 
Eb--------------------3*----------------------------|--- 
                                                                  
Chorus 
 
Gb-----------------------------------------------------|--- 
Db-----------------------------------------------------|--- 
 
Ab-------1*--3*-------1*--3*---5*--7*--8*--1*------3*--|--- 
Eb---1*-----------1*---------------------------3*------|--- 
                         
Pre Vocals 
 
Gb------|------------------|--- 
Db------|------------------|--- 
Ab--5*--|--------3-2-------|--- 
Eb------|--1--3-------3--5-|--- 
                  
Repeat Vocals, Bridge, Chorus and then: 
 
Solo 
 
Gb-------------------------------------------------------------|--- 
Db-------------------------------------------------------------|--- 
Ab--4--5*-------------------------------------------3--5*------|--- 
Eb---------5*--0--3-4-5*--0--3-4-5*--0--3-4--5*--6---------3*--|--- 
                                                 
Guitar Duet 
 
Gb--------------------------|-----------------|--- 
Db--------------------------|-----------------|--- 
Ab---7*---2*---3*---5*--6*--|--7*--2*--3*--5*-|--- 
Eb--------------------------|-----------------|--- 
                                      
Solo II 
 
Gb--------------------------|--------------------------|--- 
Db--------------------------|--------------------------|--- 
Ab-----------------3*-------|--------------3*-------3--|--- 
Eb---5*--0*---5*--------3*--|--5*--0*--5*------3*------|--- 
                                                                    
Pre Chorus 
 
Gb-----|-----|----|---------|----------|-----|--- 
Db-----|-----|----|---------|----------|-----|--- 
Ab--5--|--1--|--3-|--5---5--|--5--3--1-|--3--|--- 
Eb-----|-----|----|---------|----------|-----|--- 
                                                              
Gb------------------------------|--------------------------|--- 
Db------------------------------|--------------------------|--- 
Ab--5*---1*--3*--5*--3--1*--3*--|--1*--3*--5*--7*--1*--3*--|--- 
Eb------------------------------|--------------------------|--- 
              
Repeat Chorus twice. 
End. 
	  

Search Paypal
auto scroll beats size up size down change color hide chords drawings
tab show chords e-chords YouTube Clip e-chords hide all tabs e-chords go to top tab