Edguy

home > Edguy

Fairytale Bass Tab

Edguy

Difficulty: nolevelnolevel

by eduardo%5Flyvio

tuner correct add songbook print version text version save to e-mail
chordsukulelecavacokeyboardtabbassdrumsharmonicsflute Guitar Pro
chords

Fairytale

(Edguy)

  		Transcribed by: Andr» Baida from BRAZIL!!! 
Email: [email protected] 
 
 
Tune: E A D G 
 
Intro. 
 
|------------------| 
|------------------| 
|------------------| 
|--3----------3-3--| 
                                                                               
Intro 2. 
 
|------------------------------------------| 
|------------------------------------------| 
|------------------------------------------| 
|-5555555555555555555-11111111111111111111-| 
                                                                               
Vocals. 
 
|------------------------------------------------------------------------| 
|------------------------------------------------------------------------| 
|------------------------------------------------------------------------| 
|-5-5-5-5-5-5-5-5-5-5-5-5-5-5-5-5-11111111111111111111111111111111111111-| 
                                                                               
 
|-------------------------------------------------------------------------| 
|-------------------------------------------------------------------------| 
|-------------------------------------------------------------------------| 
|-5-5-5-5-5-5-5-5-5-5-5-5-5-5-5-5-111111111111111111111111111111111111111-| 
      
Bridge.                                                                          
 
|--------------------------------------------------------------------------| 
|--------------------------------------------------------------------------| 
|---------------------------333333333333333333-3-1-------------------------| 
|-3333333333333333333333333------------------------44444444444444444444444-| 
                                                                               
 
|----------------------------------| 
|----------------------------------| 
|--111111111111111111111111-1-1-1--| 
|----------------------------------| 
                                                                               
Chorus. 
 
|---------------------------------------------------------------------| 
|-111111111111111111111-----------------------------------------------| 
|------------------------------------------------33333333333333333333-| 
|-----------------------333333333333333333333333----------------------| 
                                                                               
 
|-----------------------------------------------------------------------| 
|---------------------------------------------1111111111111111111111111-| 
|----------------1111111111111111111111111111---------------------------| 
|-44444444444444--------------------------------------------------------| 
                                                                               
 
|--------------------------------------------------------------------| 
|--------------------------------------------------------------------| 
|-------------------------3333333333333333333333---------------------| 
|333333333333333333333333------------------------4444444444444444444-| 
                                                                               
 
|----------------------| 
|----------------------| 
|-11111111111111111111-| 
|----------------------| 
                                                                               
Repeat Intro II and then, 
 
Vocals II. 
 
|----------------------------------------------------------------| 
|----------------------------------------------------------------| 
|----------------------------------------------------------------| 
|-5-5-5-5-5-5-5-5-5-5-5-5-5-5-5-5-5-1111111111111111111111-1--1--| 
                                                                               
 
|----------------------------------------------------------------------| 
|-----------------------------------------------------3-3---2-3-3------| 
|------------------------------------------------------3-3-5---3-3-5-3-| 
|-5-5-5-5-5-5-5-5-5-5-5-5-5-5-5-5-5-111111111111111111-----------------| 
                                                                               
Repeat Bridge, Chorus and then: 
 
Interlude 2X. 
 
|---------------------------------------------------------------------------| 
|---------5-7---------5-7-----5------------5-7---------5-7-----5------------| 
|-0-5-7-0-----0-5-7-0-----0-7---7--0-5-7-0-----0-5-7-0-----0-7---7--0-5-7-0-| 
|---------------------------------------------------------------------------| 
                                                                               
|-------------------------------------------------------------| 
|-5-7---------5-7-----5-----5-7---7-9---9-10---10-12---12-14--| 
|-----0-5-7-0-----0-7---7-0-----0-----0------0-------0--------| 
|-------------------------------------------------------------| 
                                                                               
Solo 3X. 
 
|--------------------------------------------------------------------------| 
|--------------------------------------------------------------------------| 
|--0-0-0-0-0-0-0-0-0-0-0-0-3-3-3-3-3-3-3-3-3-3-3-3-------------------------| 
|--------------------------------------------------1-1-1-1-1-1-1-1-1-1-1-1-| 
                                                                               
|------------------------------| 
|------------------------------| 
|-5-5-5-5-5-5-5-5-5-5-5--5-3-2-| 
|------------------------------| 
                                                                               
Bass solo. 
 
|---------------------------------------------------------------------------| 
|--------------------------------------5-----5-----5-----5-----5------5-7---| 
|-5-7-8-5-7-8-5-7-8-5-7-8-5-7-8-5--7-8---7-8---7-8---7-8---7-8---7--8-----8-| 
|---------------------------------------------------------------------------| 
                                                                               
|----------------------------------------------------------| 
|-5-7---5-7---5-7---5-7------------------------------------| 
|-----8-----8-----8-----8--5555555555555555555555555555555-| 
|----------------------------------------------------------| 
                                                                               
Solo 2. 
 
|---------------------------------------------------------------------| 
|---------------------------------------------------------------------| 
|-0-0-0-0-0-0-0-0-0-0-0-0-0-0-0-0-0-0-0-0-0-0-0-0-0-0-0-0-0-0-0-0-0-0-| 
|---------------------------------------------------------------------| 
                                                                               
|---------------------------------------------------------------------| 
|---------------------------------------------------------------------| 
|---------------------------------------------------------------------| 
|-1-1-1-1-1-1-1-1-1-1-1-1-1-1-1-1-1-1-1-1-1-1-1-1-1-1-1-1-1-1-1-1-1-1-| 
                                                                               
|---------------------------------------------------------------------------| 
|---------------------------------------------------------------------------| 
|-0-0-0-0-0-0-0-0-0-0-0-0-0-------------------------0-0-0-0-0-0-0-0-0-3-3-3-| 
|---------------------------1-1-1-1-1-1-1-1-1-1-1-1-------------------------| 
                                                                               
|---------------------| 
|---------------------| 
|-3-3-3---------------| 
|-------3-3-3-3-3-3-3-| 
                                                                               
Solo 3 (same as bridge). 
 
Repeat Chorus, Intro 2 and then: 
 
End. 
	  

Full key step upFull key step up
Half key step upHalf key step up
Half key step downHalf key step down
Full key step downFull key step down
Search Paypal
auto scroll beats size up size down change color hide chords drawings
tab show chords e-chords YouTube Clip e-chords hide all tabs e-chords go to top tab