Edguy

home > Edguy

Down to the devil bass tab Bass Tab

Edguy

Difficulty: nolevelnolevel

by harris+mandrake

tuner correct add songbook print version text version save to e-mail
chordsukulelecavacokeyboardtabbassdrumsharmonicsflute Guitar Pro
chords

Down to the devil bass tab

  		Intro:piano 
------------------|------------------|------------------|------------------| 
------------------|------------------|------------------|------------------| 
------------------|------------------|-3-3-3-3-3-3-3-3-3|3-3-3-3-3-3-3-3-3-| 
-0-0-0-0-0-0-0-0-0|0-0-0-0-0-0-0-0-0-|------------------|------------------| 
 
 
------------------|------------------|------------------|------------------| 
------------------|------------------|------------------|---5-5-5-5--------| 
-5-5-5-5-5-5-5-5-5|5-5-5-5-5-5-5-5-5-|5-5-5-5-5-5-5-5-5-|5-5-------5-5-5-5-| 
------------------|------------------|------------------|------------------| 
 
 
------------------|------------------|------------------|------------------| 
------------------|------------------|------------------|------------------| 
------------------|------------------|-3-3-3-3-3-3-3-3-3|3-3-3-3-3-3-3-3-3-| 
-0-0-0-0-0-0-0-0-0|0-0-0-0-0-0-0-0-0-|------------------|------------------| 
 
 
------------------|------------------|------------------|------------------| 
------------------|------------------|------------------|------------------| 
-5-5-5-5-5-5-5-5-5|5-5-5-5-5-5-5-5-5-|5-5-5-5-5-5-5-5-5-|5-5-5-5-5-5-5-5/0-| 
------------------|------------------|------------------|------------------| 
 
Verse 1: 
------------------|------------------|------------------|------------------| 
------------------|------------------|------------------|------------------| 
-7-7-7-7-7-7-7-7-7|7-7-7-7-7-7-7-7-7-|7-7-7-7-7-7-7-7-7-|-7-7-7-7-7-7-2-5-2| 
------------------|------------------|------------------|------------------| 
 
 
------------------|------------------|------------------|------------------| 
------------------|------------------|------------------|------------------| 
-7-7-7-7-7-7-7-7-7|7-7-7-7-7-7-7-7-7-|7-7-7-7-7-7-7-7-7-|-7-7-7-7-7-7-7-7-7| 
------------------|------------------|------------------|------------------| 
 
Pré-Chorus 1: 
------------------|------------------|------------------|------------------| 
------------------|---------------5-5|------------------|------------------| 
-3-3-3-3-3-3-3-3-3|3-3-3-3-3-7-7-7---|5-5-5-5-5-5-5-5-5-|5-5-5-5-5-5-5-5-5-| 
------------------|------------------|------------------|------------------| 
 
 
------------------|------------------|------------------|------------------| 
------------------|------------------|------------------|------------------| 
-2-2-2-2-2-2-2-2-2|-2-2-2-2-2-2-2-2-2|-3-3-3-3-3-3-3-3-3|------------------| 
------------------|------------------|------------------|5-5-5-5-5-5-5-5-5-| 
 
 
------------------|------------------|------------------|------------------| 
------------------|------------------|------------------|------------------| 
------------------|3-3-3-3-3-3-3-3-3-|5-5-5-5-5-5-5-5-5-|5-5-5-5-5-5-5-5-5-3-3-3-3-3-3-3-3-3-|------------------|------------------|------------------| 
                                      Chorus 1: 
------------------|------------------|------------------|------------------| 
------------------|------------------|------------------|------------------| 
-5-5-5-5------5-5-|7-7-7-7-7-7-7-7-7-|7-7-7-7-7-7-7-7-7-|3-3-3-3-3---------| 
------------------|------------------|------------------|---------5-5-5-5-5| 
 
------------------|------------------|------------------|------------------| 
------------------|------------------|------------------|------------------| 
-5-5-5-5-5-5-5-5-5|-5-5-5-5-5-5-5-5-5|-2-2-2-2-2-2-2-2-2|-3-3-3-3-3-3-5-5-5| 
------------------|------------------|------------------|------------------| 
 
 
------------------|------------------|------------------|------------------| 
------------------|------------------|------------------|------------------| 
-7-7-7-7-7-7-7-7-7|-7-7-7-7-7-7-7-7-7|-3-3-3-3-3-3-3-3-3|-5-5-5-5-5-5-5-5-5| 
------------------|------------------|------------------|------------------| 
 
                                      bridge 
------------------|------------------|------------------|------------------| 
------------------|------------------|------------------|------------------| 
-5-5-5-5-5-5-5-5-5|-7/0--------------|------------------|----------------10| 
------------------|------------------|------------------|------------------| 
 
 
------------------|------------------|------------------|------------------| 
------------------|------------------|------------------|------------------| 
-7-7-7-7-7-7-7-7-7|-7-7-7-7-7-7-7-10-|10-10-10-10-10-10-|9-9-9-9-9-9-9-9-9-| 
------------------|------------------|------------------|------------------| 
 
 
------------------|------------------|------------------|------------------| 
------------------|------------------|------------------|------------------| 
-5-5-5-5-5-5-5-5-5|-5-5-5-5-5-5-5-5-5|-7-7-7-7-7-7-7-7-7|-7-7-7-7-7-7-7-7-7| 
------------------|------------------|------------------|------------------| 
 
 
------------------|------------------|------------------|------------------| 
------------------|------------------|------------------|------------------| 
-10-10-10-10-10-10|-9-9-9-9-9-9-9-9-9|-10-10-10-10-10-10|------------------| 
------------------|------------------|------------------|5-5-5-5-5-5-5-5-5-| 
 
Pré-Chorus 1: 
------------------|------------------|------------------|------------------| 
------------------|---------------5-5|------------------|------------------| 
-3-3-3-3-3-3-3-3-3|3-3-3-3-3-7-7-7---|5-5-5-5-5-5-5-5-5-|5-5-5-5-5-5-5-5-5-| 
------------------|------------------|------------------|------------------| 
 
 
------------------|------------------|------------------|------------------| 
------------------|------------------|------------------|------------------| 
-2-2-2-2-2-2-2-2-2|-2-2-2-2-2-2-2-2-2|-3-3-3-3-3-3-3-3-3|------------------| 
------------------|------------------|------------------|5-5-5-5-5-5-5-5-5-| 
 
 
------------------|------------------|------------------|------------------| 
------------------|------------------|------------------|------------------| 
------------------|3-3-3-3-3-3-3-3-3-|5-5-5-5-5-5-5-5-5-|5-5-5-5-5-5-5-5-5-3-3-3-3-3-3-3-3-3-|------------------|------------------|------------------| 
                                      Chorus 2: 
------------------|------------------|------------------|------------------| 
------------------|------------------|------------------|------------------| 
-5-5-5-5------5-5-|7-7-7-7-7-7-7-7-7-|7-7-7-7-7-7-7-7-7-|3-3-3-3-3---------| 
------------------|------------------|------------------|---------5-5-5-5-5| 
 
------------------|------------------|------------------|------------------| 
------------------|------------------|------------------|------------------| 
-5-5-5-5-5-5-5-5-5|-5-5-5-5-5-5-5-5-5|-2-2-2-2-2-2-2-2-2|-3-3-3-3-3-3-5-5-5| 
------------------|------------------|------------------|------------------| 
 
 
------------------|------------------|------------------|------------------| 
------------------|------------------|------------------|------------------| 
-7-7-7-7-7-7-7-7-7|-7-7-7-7-7-7-7-7-7|-3-3-3-3-3-3-3-3-3|-5-5-5-5-5-5-5-5-5| 
------------------|------------------|------------------|------------------| 
 
Intro: 
 
Guitar solo:  
------------------|------------------|------------------|------------------| 
------------------|------------------|------------------|------------------| 
-4-4-4-4-4-4-4-4-4|-4-4-4-4-4-4-4-4-4|-4------7-7-7-7---|------------------| 
------------------|------------------|----7-7-7------5-5|-5-5-5-5-5-5-5-5-5| 
 
 
------------------|------------------|------------------|------------------| 
------------------|------------------|------------------|------------------| 
------------------|5-5-5-7-7-7-------|4-4-4-4-4-4-4-4-4-|4---------7-7-7---| 
-5-5-5-5-5-5-5-5-5|-----------7-7-7-7|------------------|-7-7-7-7-7-----5-5| 
 
                                                                           Harmony: 
------------------|------------------|------------------|------------------| 
------------------|------------------|------------------|------------------| 
------------------|------------------|------------------|4-4-4-4-4-4-4-4-4-| 
-5-5-5-5-5-5-5-5-5|5-5-5-5-5-5-5-4-4-|2-2-2-2-2-2-2-2-2-|------------------| 
 
------------------|------------------|------------------|------------------| 
------------------|------------------|------------------|------------------| 
-2-2-2-2-2-2-2-2-2|4-4-4-4-4-4-4-4-4-|2-2-2-2-2-2-2-2-2-|------------------| 
------------------|------------------|------------------|4-4-4-4-4-4-4-4-4-| 
Piano bridge: 
------------------|------------------|------------------|------------------| 
------------------|------------------|------------------|------------------| 
--4---------------|------------------|------------------|------------------| 
------------------|------------------|------------------|------------------| 
 
Chorus 3: 
------------------|------------------|------------------| 
------------------|------------------|------------------| 
7-7-7-7-7-7-7-7-7-|7-7-7-7-7-7-7-7-7-|3-3-3-3-3---------| 
------------------|------------------|---------5-5-5-5-5| 
 
------------------|------------------|------------------|------------------| 
------------------|------------------|------------------|------------------| 
-5-5-5-5-5-5-5-5-5|-5-5-5-5-5-5-5-5-5|-2-2-2-2-2-2-2-2-2|-3-3-3-3-3-3-5-5-5| 
------------------|------------------|------------------|------------------| 
 
 
------------------|------------------|------------------|------------------| 
------------------|------------------|------------------|------------------| 
-7-7-7-7-7-7-7-7-7|-7-7-7-7-7-7-7-7-7|-3-3-3-3-3-3-3-3-3|-5-5-5-5-5-5-5-5-5| 
------------------|------------------|------------------|------------------| 
Chorus 4: 
------------------|------------------|------------------|------------------| 
------------------|------------------|------------------|------------------| 
-9-9-9-9-9-9-9-9-9|-9-9-9-9-9-9-9-9-9|-5-5-5-5-5-5-5-5-5|------------------| 
------------------|------------------|------------------|-7-7-7-7-7-7-7-7-7| 
 
 
------------------|------------------|------------------|------------------| 
------------------|------------------|------------------|------------------| 
-7-7-7-7-7-7-7-7-7|7-7-7-7-7-7-7-7-7-|4-4-4-4-4-4-4-4-4-|5-5-5-5-7-7-7-7-7-| 
------------------|------------------|------------------|------------------| 
 
 
------------------|------------------|------------------|------------------| 
------------------|------------------|------------------|------------------| 
-9-9-9-9-9-9-9-9-9|9-9-9-9-9-9-9-9-9-|5-5-5-5-5-5-5-5-5-|7-7-7-7-7-7-7-7-7-| 
------------------|------------------|------------------|------------------| 
 
Outro Chorus: 
------------------|------------------|------------------|------------------| 
------------------|------------------|------------------|------------------| 
-9-9-9-9-9-9-9-9-9|-9-9-9-9-9-9-9-9-9|-5-5-5-5-5-5-5-5-5|------------------| 
------------------|------------------|------------------|-7-7-7-7-7-7-7-7-7| 
 
 
------------------|------------------|------------------|------------------| 
------------------|------------------|------------------|------------------| 
-7-7-7-7-7-7-7-7-7|7-7-7-7-7-7-7-7-7-|4-4-4-4-4-4-4-4-4-|5-5-5-5-7-7-7-7-7-| 
------------------|------------------|------------------|------------------| 
 
 
End. 
 

	  

Search Paypal
auto scroll beats size up size down change color hide chords drawings
tab show chords e-chords YouTube Clip e-chords hide all tabs e-chords go to top tab