Eclipse

Necropolis

Eclipse

bass

by  HUGO_RODRIGUES

save to print version add songbook text version e-mail correct tuner
chordsukulelecavacokeyboardtabbassdrumsharmonicaflute Guitar Pro
close

there isn't a video lesson for this song

chords

Necropolis

	  		
Intro part 1 

G|---------------------------------------------------------------------------| 
D|---------------------------------------------------------------------------| 
A|---------------------------------------------------------------------------| 
D|-0000---00---00---00---00--------------------------------------------------| 8x (skip first 3) 

G|---------------------------------------------------------------------------| 
D|---------------------------------------------------------------------------| 
A|---------------------------------------------------------------------------| 
D|-0000---00---00------------------------------------------------------------| only last time 


Intro part 2 

G|---------------------------------------------------------------------------| 
D|---------------------------------------------------------------------------| 
A|---------------------------------------------------------------------------| 
D|-0000-3-0-3-1--00-3-0-3-1--00-3-0-3-1--00-3-0-3-1--00-6666-----------------| 2x 

G|---------------------------------------------------------------------------| 
D|---------------------------------------------------------------------------| 
A|---------------------------------------------------------------------------| 
D|-0000-3-0-3-1--0000-3-0-3-1--0000-3-0-3-1--0000-6666-----------------------| 2x 


Verse 

G|---------------------------------------------------------------------------| 
D|---------------------------------------------------------------------------| 
A|---------------------------------------------------------------------------| 
D|-0---1-3~---5h6-5-3-5------------------------------------------------------| 2x 

G|---------------------------------------------------------------------------| 
D|---------------------------------------------------------------------------| 
A|---------------------------------------------------------------------------| 
D|-0--6-0-6-5-3-5--00-6-0-6-1-3~---5h6-5-3-5---------------------------------| 4x 


Pre-Chorus 

G|---------------------------------------------------------------------------| 
D|---------------------------------------------------------------------------| 
A|-----------------5-3-1-----------------------------------------------------| 
D|-0-0-0-0-0-0-0-0-------6-5-------------------------------------------------| 


Chorus 

G|---------------------------------------------------------------------------| 
D|---------------------------------------------------------------------------| 
A|---------------------------------------------------------------------------| 
D|-6----8----5----6-8-6-5-3-555--6-8-6-5-3-555-------------------------------| listen for strumming pattern 


G|---------------------------------------------------------------------------| 
D|---------------------------------------------------------------------------| 
A|---------------------------------------------------------------------------| 
D|-6----8----5----6-8-6-5-3-555--6-8-6-5-0000--------------------------------| 


Interlude 

G|---------------------------------------------------------------------------| 
D|---------------------------------------------------------------------------| 
A|---------------------------------------------------------------------------| 
D|-0~-------6~---8-6-5-------------------------------------------------------|  


Verse 

G|---------------------------------------------------------------------------| 
D|---------------------------------------------------------------------------| 
A|---------------------------------------------------------------------------| 
D|-0---1-3~---5h6-5-3-5------------------------------------------------------| 2x 

G|---------------------------------------------------------------------------| 
D|---------------------------------------------------------------------------| 
A|---------------------------------------------------------------------------| 
D|-0--6-0-6-5-3-5--00-6-0-6-1-3~---5h6-5-3-5---------------------------------| 4x 


Pre-Chorus 

G|---------------------------------------------------------------------------| 
D|---------------------------------------------------------------------------| 
A|-----------------5-3-1-----------------------------------------------------| 
D|-0-0-0-0-0-0-0-0-------6-5-------------------------------------------------| 


Chorus 

G|---------------------------------------------------------------------------| 
D|---------------------------------------------------------------------------| 
A|---------------------------------------------------------------------------| 
D|-6----8----5----6-8-6-5-3-555--6-8-6-5-3-555-------------------------------| listen for strumming pattern 

G|---------------------------------------------------------------------------| 
D|---------------------------------------------------------------------------| 
A|---------------------------------------------------------------------------| 
D|-6----8----5----6-8-6-5-3-555--6-8-6-5-0000--------------------------------| 

G|---------------------------------------------------------------------------| 
D|---------------------------------------------------------------------------| 
A|---------------------------------------------------------------------------| 
D|-6----8----5----6-8-6-5-3-5--6-8-6-5-3-5-----------------------------------| 

G|---------------------------------------------------------------------------| 
D|---------------------------------------------------------------------------| 
A|---------------------------------------------------------------------------| 
D|-8----10----5----6-8-6-5-3-5--6-8-6-5-0------------------------------------| 


Pre-solo 

G|---------------------------------------------------------------------------| 
D|---------------------------------------------------------------------------| 
A|---------------------------------------------------------------------------| 
D|-0~---3-6-1~---------------------------------------------------------------| 


Solo rhythm 

G|---------------------------------------------------------------------------| 
D|---------------------------------------------------------------------------| 
A|---------------------------------------------------------------------------| listen for strummming pattern 
D|-0--1---3-1-3-1-0----------------------------------------------------------| 4x 

G|---------------------------------------------------------------------------| 
D|---------------------------------------------------------------------------| 
A|---------------------------------------------------------------------------| 
D|-7--8---10-8-7-10-8-7-10-8-------------------------------------------------| 2x 

G|---------------------------------------------------------------------------| 
D|---------------------------------------------------------------------------| 
A|---------------------------------------------------------------------------| 
D|-0--1---3-1-3-1-0----------------------------------------------------------| 2x 


Acoustic bridge 

- 


Pre-breakdown 

G|---------------------------------------------------------------------------| 
D|---------------------------------------------------------------------------| 
A|---------------------------------------------------------------------------| 
D|-0~--1---3-1-3-1-0~----1-3-----3-1-----------------------------------------| 


Breakdown 

G|---------------------------------------------------------------------------| 
D|---------------------------------------------------------------------------| 
A|---------------------------------------------------------------------------| 
D|-0-6p3-6p3-6p3-6\1111--0-6p3-6p3-6p3--6/1----------------------------------| 

G|---------------------------------------------------------------------------| 
D|---------------------------------------------------------------------------| 
A|---------------------------------------------------------------------------| 
D|-0-6p3-6p3-6p3-6\1111--0-6p3-6p3-6-3-1-3-1-0-------------------------------| 

G|---------------------------------------------------------------------------| 
D|---------------------------------------------------------------------------| 
A|---------------------------------------------------------------------------| 
D|-0-6p3-6p3-6p3-6\1111--0-6p3-6p3-6p3--6/1----------------------------------| 

G|---------------------------------------------------------------------------| 
D|---------------------------------------------------------------------------| 
A|---------------------------------------------------------------------------| 
D|-0-6p3-6p3-6p3-6\1111--0-6p3-6p3-6-3-1-3-1-0-------------------------------| 

G|---------------------------------------------------------------------------| 
D|---------------------------------------------------------------------------| 
A|---------------------------------------------------------------------------| 
D|-0-3/666-0-3/666-0-3/66--0-3/666-0-6-3-1-3-1-0-----------------------------| 4x 


Pre-Chorus 

G|---------------------------------------------------------------------------| 
D|---------------------------------------------------------------------------| 
A|-----------------5-3-1-----------------------------------------------------| 
D|-0-0-0-0-0-0-0-0-------6-5-------------------------------------------------| 


Chorus 

G|---------------------------------------------------------------------------| 
D|---------------------------------------------------------------------------| 
A|---------------------------------------------------------------------------| 
D|-6----8----5----6-8-6-5-3-555--6-8-6-5-3-555-------------------------------| listen for strumming pattern 


G|---------------------------------------------------------------------------| 
D|---------------------------------------------------------------------------| 
A|---------------------------------------------------------------------------| 
D|-6----8----5----6-8-6-5-3-555--6-8-6-5-0000--------------------------------| 


Outro 

G|---------------------------------------------------------------------------| 
D|---------------------------------------------------------------------------| 
A|---------------------------------------------------------------------------| 
D|-6-6---8-8---5-5---6-6-6-6----5-5---8-8---5-5---6~-------------------------| 



************************************ 

| h  Hammer-on 
| ~  Vibrato 
| p  Pull-off 
| /  Slide up 
| \  Slide down 

************************************ 
		  

See also:

bass Deep Purple - Smoke On The Water (ver. 3) bass Deep Purple - Ted The Mechanic bass Deep Purple - Speed King bass Deep Purple - Burn bass Deep Purple - Into The Fire bass Deep Purple - Strange kind of woman
e-chords

Other versions:

bass Eclipse - Necropolis
auto scroll beats size up size down change color hide chords drawings
tab show chords e-chords YouTube Clip e-chords hide all tabs e-chords go to top tab

share with facebook