Echo and The Bunnymen

Do It Clean

Echo and The Bunnymen

bass Easy easy

save to print version add songbook text version e-mail correct tuner
chordsukulelecavacokeyboardtabbassdrumsharmonicaflute Guitar Pro
close

there isn't a video lesson for this song

chords

Do It Clean

	  		


By Echo & The Bunnymen 
From “Crocodiles”
Tabbed by pil101@yahoo.com


G-------------------------------------
D-------------------------------------
A-5--7----5--7----5--7-10-12----------intro
E-------------------------------------


G-------------------------------------
D------5-55---------------------------
A-7-77-----777-5-55-------------------verse x10
E-------------------------------------


G-------------5-7-5-------------------
D------5-55--------------------------- 
A-7-77-----5--------------------------chorus x4
E------------------------------------- 


G------------9------------------------
D-----5-55-----7----------------------
A-7-77-----------7h5------------------around 1:02, 2:06
E-------------------------------------

verse x8
chorus x4
verse x16
chorus x4

		  

See also:

bass Coldplay - The Scientist (ver. 2) bass The Rolling Stones - Angie bass The Beatles - Twist and shout bass The Beatles - A Hard Day's Night bass The Beatles - Love Me Do bass Eric Clapton - Cocain
e-chords

Other versions:

bass Echo and The Bunnymen - Do It Clean
auto scroll beats size up size down change color hide chords drawings
tab show chords e-chords YouTube Clip e-chords hide all tabs e-chords go to top tab

share