Dragon Ball GT

Trunks Theme

Dragon Ball GT

bass Expert expert

by  HCK

save to print version add songbook text version e-mail correct tuner
chordsukulelecavacokeyboardtabbassdrumsharmonicaflute Guitar Pro
close

there isn't a video lesson for this song

chords

Trunks Theme

( Hironobu Kageyama)

	  		e-------5|---5--7--8---5|---8--7--5|--7------------|--------------5-7-8|
B----------------|--------------------|----------|----8-------8--|----6| 
G----------------|--------------------|----------|--------7------|-----| 


e-----5--7--8---5|---8--10|----7---|---8--7----------------|--------------------------| 
B----------------------|-----------|--------|---------8-------------|----10-----------| 
G----------------------|-----------|--------|-------------9---------|-----------------| 


e--------7|----7--9--10------7--9--10---|--10--9|--9---------------|------------| 
B-----------------|-----------------------------|------------|----10-------10---| 
G-----------------|-----------------------------|------------|---------9--------| 


e-------------------7|----7|---10---12---10--|--9--|-10|--------------------------------| 
B-----8|---------------------|-----------------|-----|-------10----|---12---------------| 
G---------------------------|---------------------|-----------------|-----|----------11-| 
		  

See also:

bass Super Mario - Super Mario Bross Tab. bass Babes In Toyland - Arriba bass Misc Computer Games - Nintendo - Cornelia bass Misc Computer Games - Nintendo - Song Of Storms bass Misc Computer Games - Nintendo - Castlevania 64 bass Misc Computer Games - Dr Mario Theme
e-chords

Other versions:

bass Dragon Ball GT - Trunks Theme
auto scroll beats size up size down change color hide chords drawings
tab show chords e-chords YouTube Clip e-chords hide all tabs e-chords go to top tab

share