Disturbed

Down With The Sickness (ver. 2)

Disturbed

bass Easy easy

save to print version add songbook text version e-mail correct tuner
chordsukulelecavacokeyboardtabbassdrumsharmonicaflute Guitar Pro
close

there isn't a video lesson for this song

chords

Down With The Sickness (ver. 2)

	  		





The Sickness
Tabbed by MattW

Wait whilst drumming at begining then come in.

G|-------------------------------|
D|-------------------------------|  
A|-------------------------------|   x8
D|--X-X--X-X--X-X--X-X--X-X-X-X--| 
                           
G|-----------------------|-----------|
D|-----------------------|-----------|
A|-----------------------|-----------|   x3
D|-1-4-1-2-1--1-4-1-2-1--|--1-4-1-2--|

G|-----------------------|-----------|------|
D|-----------------------|-----------|------|
A|-----------------------|-----------|------|   x1
D|-1-4-1-2-1--1-4-1-2-1--|--1-4-1-2--|-2222-|

G|-----------------------|-----------|
D|-----------------------|-----------|
A|-----------------------|-----------|   x3
D|-1-4-1-2-1--1-4-1-2-1--|--1-4-1-2--|

G|-------------------------|
D|-------------------------|
A|-------------------------|   x1
D|-1-4-1-2-1--1-4-22222222-|

Verse  
G|----------------------|--------------------| 
D|----------------------|--------------------|  
A|----------------------|--------------------|   x4
D|--11111--11111--1111--|-11111--11111--2222-| 

G|-----------------------|-----------|
D|-----------------------|-----------|
A|-----------------------|-----------|   x8
D|-1-4-1-2-1--1-4-1-2-1--|--1-4-1-2--|
 
Chorus
G|---------------|--------------|--------------|   -----|
D|---------------|--------------|--------------|        |
A|---------------|--------------|--------------|        |
D|--1-1121-1-121-|-1-1121-1-222-|-1-1121-1-121-|        |
                                                        |   x2
G|--------------|                                       |
D|--------------|                                       |
A|--------------|                                       |
D|-3--3-31--1-1-|                                  -----|

Verse
G|----------------------|--------------------| 
D|----------------------|--------------------|  
A|----------------------|--------------------|   x4
D|--11111--11111--1111--|-11111--11111--2222-| 

G|-----------------------|-----------|
D|-----------------------|-----------|
A|-----------------------|-----------|   x8
D|-1-4-1-2-1--1-4-1-2-1--|--1-4-1-2--|


Chorus
G|---------------|--------------|--------------|   -----|
D|---------------|--------------|--------------|        |
A|---------------|--------------|--------------|        |
D|--1-1121-1-121-|-1-1121-1-222-|-1-1121-1-121-|        |
                                                        |   x2
G|--------------|                                       |
D|--------------|                                       |
A|--------------|                                       |
D|-3--3-31--1-1-|                                  -----|

Bridge
G|--------|
D|--------|   
A|--------|   x8
D|-10-9-1-|
                    
G|------------------|
D|------------------|   
A|------------------|   x3
D|-3-9-10-15-3-9-10-|

G|--------|  
D|--------|
A|--------|   x4
D|-3-9-10-|

G|------------------|
D|------------------|
A|------------------|   x3
D|-3-9-10-15-3-9-10-|

Rest

G|------------------------------|
D|-3-6-3-4-3--3-6-3-4-3--3-6-3-4|
A|------------------------------|   x2
D|------------------------------|
                    
Chorus
G|---------------|--------------|--------------|   -----|
D|---------------|--------------|--------------|        |
A|---------------|--------------|--------------|        |
D|--1-1121-1-121-|-1-1121-1-222-|-1-1121-1-121-|        |
                                                        |   x2
G|--------------|                                       |
D|--------------|                                       |
A|--------------|                                       |
D|-3--3-31--1-1-|                                  -----|
I think this tab is OK. It's better than the last one I did of this. You might need to change the ammount of times you plays each part.

		  

See also:

bass The Clash - London Calling (ver. 2) bass Cream - Crossroads bass Mudvayne - Not Falling bass Guano Apes - Open Your Eyes (ver. 3) bass Dio - Holy Diver bass Finch - Letters To You - Drop C
e-chords

Other versions:

bass Disturbed - Down With The Sickness bass Disturbed - Down With The Sickness (ver. 2) bass Disturbed - Down With The Sickness (ver. 3) bass Disturbed - Down With The Sicknesss
auto scroll beats size up size down change color hide chords drawings
tab show chords e-chords YouTube Clip e-chords hide all tabs e-chords go to top tab

share