Deuce

Gravestone

Deuce

bass

by  EDSOOLIVEIRA

save to print version add songbook text version e-mail correct tuner
chordsukulelecavacokeyboardtabbassdrumsharmonicaflute Guitar Pro
close

there isn't a video lesson for this song

chords

Gravestone

	  		
Intro 
G|------------------------| 
D|------------------------| 
A|-----------------6------| (x2) 
E|--4----7----9-----------| 

Verse 
G|------------------------| 
D|------------------------| 
A|-----------------6------| (x4) 
E|--4----7----9-------0---| 

Chorus 
G|-----------------------------------------------------------------------| 
D|-----------------------------------------------------------------------| 
A|-----------------------------------------------------6-6-6-6-----------| (x4) 
E|--4-4-4-4-4-4-4-4--7-7-7-7-7-7-7-7--9-9-9-9-9-9-9-9-----------0-0-0-0--| 

Verse 
G|------------------------| 
D|------------------------| 
A|-----------------6------| (x6) 
E|--4----7----9-------0---| 

Chorus 
G|-----------------------------------------------------------------------| 
D|-----------------------------------------------------------------------| 
A|-----------------------------------------------------6-6-6-6-----------| (x4) 
E|--4-4-4-4-4-4-4-4--7-7-7-7-7-7-7-7--9-9-9-9-9-9-9-9-----------0-0-0-0--| 

Verse 
G|------------------------| 
D|------------------------| 
A|-----------------6------| (x6) 
E|--4----7----9-------0---| 

Chorus/End 
G|-----------------------------------------------------------------------| 
D|-----------------------------------------------------------------------| 
A|-----------------------------------------------------6-6-6-6-----------| (x4) 
E|--4-4-4-4-4-4-4-4--7-7-7-7-7-7-7-7--9-9-9-9-9-9-9-9-----------0-0-0-0--| 
		  

See also:

bass Deep Purple - Speed King bass Deep Purple - Ted The Mechanic bass Deep Purple - Child in time bass Deep Purple - When a Blind man cries bass Deep Purple - Black Night bass Deep Purple - Fire Ball
e-chords

Other versions:

bass Deuce - Gravestone
auto scroll beats size up size down change color hide chords drawings
tab show chords e-chords YouTube Clip e-chords hide all tabs e-chords go to top tab

share