Deftones

home > Deftones

Change (ver. 2) Bass Tab

Deftones

Difficulty: nolevelnolevel

tuner correct add songbook print version text version save to e-mail
chordsukulelecavacokeyboardtabbassdrumsharmonicsflute Guitar Pro
chords

Change (ver. 2)

  		

Tabber: joel spencer
 
  

Verse

F|---------------------------------------------------------------|
C|---------------------------------------------------------------|
G|---------------------------------------------------------------|
C|-0-10-12-0-12-12-0-0-12-12-10-12-10-/-5-5-5-5-5-5-0-0-5-5-0-5-3| 

Chorus

F|-----------------------------------------------------|
C|-----------------------------------------------------|
G|-----------------------------------------------------|
C|0-0-0-15-0-0-0-15-0-0-0-15-0-0-0-8-8-8-5-5-8-8-8-5-8-|

Post chorus 
F|--------------------------------|
C|--------------------------------|
G|--------------------------------|
C|3-3-3-3-3-3-3-3-0-0-0-0-0-0-0-0-|

Interlude

F|-----------------------------------------------------|
C|-----------------------------------------------------|
G|-----------------------------------------------------|
C|5~~~~~~~-0~~~~~~~~-5~~~~~~~~~-0~~~~~~~5~~~~~~~/0~~~~~| 
let it ring for a bit till the chorus

interlude 

F|--------------------------------------------|
C|--------------------------------------------|
G|--------------------------------------------|
C|5-5-5-5-5-5-5-5-5-5-0-0-0-0-0-0-0-0-0-0-0-0-|
The rythem switches to this little biatch

Outro

F|------------------------------------------------|
C|------------------------------------------------|
G|------------------------------------------------|
C|3-3-3-0-0-0-3-3-3-0-0-0-3-3-3-0-0-0-3-3-3-0-0-0-|


Itís pretty easy once u get the swing of things 
Rock on

	  

Search Paypal
auto scroll beats size up size down change color hide chords drawings
tab show chords e-chords YouTube Clip e-chords hide all tabs e-chords go to top tab