Def Leppard

Wasted

Def Leppard

bass Advanced advanced

save to print version add songbook text version e-mail correct tuner
chordsukulelecavacokeyboardtabbassdrumsharmonicaflute Guitar Pro
close

there isn't a video lesson for this song

chords

Wasted

Year: 1980 - Album: On Through the Night

	  		
intro/verse
g------------------------------
d-----5------------------------
a--7-5-7-5-3-5-2---------------
e-0----------------------------


chorus
g------------------------------
d------------------------------
a--5-0-3-2-3-2-0---------------
e-0-------------3-0------------

bridge
g------------------------------
d---------------2-2-0-0-3-3----
a--------3-3-2-2---------------
e-0-0-3-3----------------------

intro/verse x8

chorus x4

verse x8

chorus x4

bridge x4

verse x8

chorus x4

		  

See also:

bass Eric Clapton - Knockin On Heavens Door bass White Stripes - 7 nation army(ver.2) bass Deep Purple - Smoke On The Water (ver. 2) bass The Beatles - Twist And Shout (ver. 2) bass Deep Purple - Black Night bass The Beatles - Black Bird (ver. 2)
e-chords

Other versions:

bass Def Leppard - Wasted bass Kings of Leon - Wasted Time bass Iron Maiden - Wasted Years
auto scroll beats size up size down change color hide chords drawings
tab show chords e-chords YouTube Clip e-chords hide all tabs e-chords go to top tab

share