De Dijk

home > De Dijk

Niet De Lef Bass Tab

De Dijk

Difficulty: nolevelnolevel

by bombaXXX

tuner correct add songbook print version text version save to e-mail
chordsukulelecavacokeyboardtabbassdrumsharmonicsflute Guitar Pro
chords

Niet De Lef

	  Intro 
G|-------------------------------|---------------------------------| 
D|---------2---4-----------------|---------2---4-------------------| 
A|-2-----2---------2-2-0-2-----0-|-2-----2---------2-2-0-2-----0---| 
E|---------------------------2---|---------------------------2-----| 

G|-------------------------------|---------------------------------| 
D|---------2---4-----------------|---------2---4-------------------| 
A|-2-----2---------2-2-0-2-----0-|-2-----2---------2-2-0-2-----0-1-| 
E|---------------------------2---|---------------------------2-----| 

verse 1 
G|-------------------------------|---------------------------------| 
D|---------2---4---5-----5-0---5-|---------2---4-------------------| 
A|-2-----2-----------------------|-2-----2---------2-----2-----0---| 
E|-------------------------------|-------------------------2-------| 

G|-------------------------------|---------------------------------| 
D|---------2---4---5-----5-0---5-|---------2---4-------------------| 
A|-2-----2-----------------------|-2-----2---------2-----2-----0---| 
E|-------------------------------|-------------------------2-------| 

Chorus 1 
G|-------------------------------|---------------------------------|-----------------| 
D|-------------------------------|---------------------------------|-----------------| 
A|-5---5-------5---------------4-|-5---5---------------------------|-----------------| 
E|---------5-------3---3---0-----|---------3---3---5-------3-5-5---|-3-5-5---3-5-5---| 

G|-------------------------------|---------------------------------| 
D|---------2---4-----------------|---------2---4-------------------| 
A|-2-----2---------2-2-0-2-----0-|-2-----2---------2-2-0-2-----0---| 
E|---------------------------2---|---------------------------2-----| 

verse 2 
G|-------------------------------|---------------------------------| 
D|---------2---4---5-----5-0---5-|---------2---4-------------------| 
A|-2-----2-----------------------|-2-----2---------2-----2-----0---| 
E|-------------------------------|-------------------------2-------| 

G|-------------------------------|---------------------------------| 
D|---------2---4---5-----5-0---5-|---------2---4-------------------| 
A|-2-----2-----------------------|-2-----2---------2-----2-----0---| 
E|-------------------------------|-------------------------2-------| 

Chorus 2 
G|-------------------------------|---------------------------------|-----------------| 
D|-------------------------------|---------------------------------|-----------------| 
A|-5---5-------5---------------4-|-5---5---------------------------|-----------------| 
E|---------5-------3---3---0-----|---------3---3---5-------3-5-5---|-3-5-5---3-5-5---| 

G|-------------------------------|---------------------------------| 
D|-------------------------------|---------------------------------| 
A|-2-----2-0---------------------|---------------------------------| 
E|-------------2---3-----2-3---0-|-1---2---1---2---1---------------| 

Guitar Solo 
G|-------------------------------|---------------------------------| 
D|---------2---4-----------------|---------2---4-------------------| 
A|-2-----2---------2-2-0-2-----0-|-2-----2---------2-2-0-2-----0---| 
E|---------------------------2---|---------------------------2-----| 

G|-------------------------------|---------------------------------| 
D|---------2---4-----------------|---------2---4-------------------| 
A|-2-----2---------2-2-0-2-----0-|-2-----2---------2-2-0-2-----0---| 
E|---------------------------2---|---------------------------2-----| 

verse 3 
G|-------------------------------|---------------------------------| 
D|---------2---4---5-----5-0---5-|---------2---4-------------------| 
A|-2-----2-----------------------|-2-----2---------2-----2-----0---| 
E|-------------------------------|-------------------------2-------| 

G|-------------------------------|---------------------------------| 
D|---------2---4---5-----5-0---5-|---------2---4-------------------| 
A|-2-----2-----------------------|-2-----2---------2---2-------0---| 
E|-------------------------------|-------------------------2-------| 

Chorus 3 
G|-------------------------------|---------------------------------|-----------------| 
D|-------------------------------|---------------------------------|-----------------| 
A|-5---5-------5---------------4-|-5---5---------------------------|-----------------| 
E|---------5-------3---3---0-----|---------3---3---5-------3-5-5---|-3-5-5---3-5-5---| 

G|-------------------------------|---------------------------------| 
D|-------------------------------|---------------------------------| 
A|-2-----2-0---------------------|---------------------------------| 
E|-------------2---3-----2-3---0-|-1---2---1---2---1---------------| 

Guitar Solo 2 
G|-------------------------------|---------------------------------| 
D|---------2---4-----------------|---------2---4-------------------| 
A|-2-----2---------2-2-0-2-----0-|-2-----2---------2-2-0-2-----0---| 
E|---------------------------2---|---------------------------2-----| 

G|-------------------------------|---------------------------------| 
D|---------2---4-----------2---4-|---------2---4-----------2---4---| 
A|-2-----2---------2-----2-------|-2-----2---------2-----2---------| 
E|-------------------------------|---------------------------------| 

verse 4 
G|-------------------------------|---------------------------------| 
D|---------2---4---5-----5-0---5-|---------2---4-------------------| 
A|-2-----2-----------------------|-2-----2---------2-----2-----0---| 
E|-------------------------------|-------------------------2-------| 

G|-------------------------------|---------------------------------| 
D|---------2---4---5-----5-0---5-|---------2---4-------------------| 
A|-2-----2-----------------------|-2-----2---------2---2-------0---| 
E|-------------------------------|-------------------------2-------| 

Chorus 4 
G|-------------------------------|---------------------------------|-----------------| 
D|-------------------------------|---------------------------------|-----------------| 
A|-5---5-------5---------------4-|-5---5---------------------------|-----------------| 
E|---------5-------3---3---0-----|---------3---3---5-------3-5-5---|-3-5-5---3-5-5---| 

G|-------------------------------|---------------------------------| 
D|-------------------------------|---------------------------------| 
A|-2-----2-0---------------------|---------------------------------| 
E|-------------2---3-----2-3---0-|-1---2---1---2---1---2---1---2---| 

G|-------------------------------|---------------------------------| 
D|-------------------------------|---------------------------------| 
A|-2-----2-0---------------------|---------------------------------| 
E|-------------2---3-----2-3---0-|-1---2---1---2---1---------------| 

Outro 
G|-------------------------------|---------------------------------| 
D|---------2---4-----------------|---------2---4-------------------| 
A|-2-----2---------2-2-0-2-----0-|-2-----2---------2-2-0-2-----0---| 
E|---------------------------2---|---------------------------2-----| 

G|-------------------------------|---------------------------------| 
D|---------2---4-----------------|-----0---2---0-------------------| 
A|-2-----2---------2-2-0-2-----0-|-2---------------2-2-0-2---------| 
E|---------------------------2---|---------------------------------| 
	  

there isn't a video lesson for this song

request
Search
auto scroll beats size up size down change color hide chords drawings
tab show chords e-chords YouTube Clip e-chords hide all tabs e-chords go to top tab