Dance Gavin Dance

County

Dance Gavin Dance

bass

by  ANG-LETRA

save to print version add songbook text version e-mail correct tuner
chordsukulelecavacokeyboardtabbassdrumsharmonicaflute Guitar Pro
close

there isn't a video lesson for this song

chords

County

	  		
Pre-Chorus 
0:28 
G|----------------------------------------------------------| 
D|---4-4---------------------------4-----6-----8-8----------| 
A|----------8-8-----6-6-------------------------------------| 
E|----------------------------------------------------------|     x2 

Chorus 
0:56 
G|-----------------------------------------------------------------| 
D|-----------------------------------------------------------------| 
A|-4-4-4-4-4-4-4-4-4-4-4-4-4-4-4-4-3-3-3-3-3-3-3-3-3-3-3-3-3-3-3-0-| 
E|-----------------------------------------------------------------| 

G|-----------------------------------------------------------------| 
D|-----------------------------------------------------------------| 
A|-1-1-1-1-1-1-1-1-1-1-1-1-1-1-1-1-3-3-3-3-3-3-3-3-3-3-3-3-3-3-3-3-| 
E|-----------------------------------------------------------------| 

G|-----------------------------------------------------------------| 
D|-----------------------------------------------------------------| 
A|-----------------------------------------------------------------| 
E|-2-2-2-2-2-2-2-2-2-2-2-2-2-2-2-2-4-4-4-4-4-4-4-4-4-4-4-4-4-4-4-4-| 

G|-----------------------------------------------------------------| 
D|-----------------------------------------------------------------| 
A|-----------------------------------------------------------------| 
E|-6-6-6-6-6-6-6-6-6-6-6-6-6-6-6-6-1-1-1-1-1-1-1-1-1-1-1-1-1-1-1-1-| 

Break 
1:25 
G|------------------------------------------------------| 
D|----4-------------------------------------------------| 
A|------------------------------------------------------| 
E|-------------------------9----------4-----------------| 

Pre-Chorus 
1:39 
G|---------------------------------------------------------| 
D|---4-4---------------------------4-----6-----8-8---------| 
A|----------8-8-----6-6------------------------------------| 
E|---------------------------------------------------------|     x2 

Chorus 
2:07 
G|-----------------------------------------------------------------| 
D|-----------------------------------------------------------------| 
A|-4-4-4-4-4-4-4-4-4-4-4-4-4-4-4-4-3-3-3-3-3-3-3-3-3-3-3-3-3-3-3-0-| 
E|-----------------------------------------------------------------| 

G|-----------------------------------------------------------------| 
D|-----------------------------------------------------------------| 
A|-1-1-1-1-1-1-1-1-1-1-1-1-1-1-1-1-3-3-3-3-3-3-3-3-3-3-3-3-3-3-3-3-| 
E|-----------------------------------------------------------------| 

G|-----------------------------------------------------------------| 
D|-----------------------------------------------------------------| 
A|-----------------------------------------------------------------| 
E|-2-2-2-2-2-2-2-2-2-2-2-2-2-2-2-2-4-4-4-4-4-4-4-4-4-4-4-4-4-4-4-4-| 

G|-----------------------------------------------------------------| 
D|-----------------------------------------------------------------| 
A|-----------------------------------------------------------------| 
E|-6-6-6-6-6-6-6-6-6-6-6-6-6-6-6-6-1-1-1-1-1-1-1-1-1-1-1-1-1-1-1-1-| 

2:35 
G|-----------------------------------------------------------------| 
D|-----------------------------------------------------------------| 
A|-----------------------------------------------------------------| 
E|-2-2-2-2-2-2-2-2-2-2-2-2-2-2-2-2-4-4-4-4-4-4-4-4-4-4-4-4-4-4-4-4-| 

G|-----------------------------------------------------------------| 
D|-----------------------------------------------------------------| 
A|-----------------------------------------------------------------| 
E|-6-6-6-6-6-6-6-6-6-6-6-6-6-6-6-6-1-1-1-1-1-1-1-1-1-1-1-1-1-1-1-1-| 

Outro 
2:52 
G|--------------------------------------------------------------------------------------------| 
D|--------------------------------------------------------------------------6--6-6------------| 
A|-4-4-4---4-4-4----4-4-------------------------6-6-6-6-6-6-6-6-6-6---6-6---------------------| 
E|----------------------2----2--2----2----2-----------------------------------------6--4--6---| x2 

G|------------------------------------------------------------| 
D|------------------------1-----------------------------------| 
A|---4-4-4-4-4--1--4--------4---------------------------------| 
E|----------------------------2---2---2-2-2----2-4-6-4-2------| 

G|------------------------------------------------------------| 
D|------------------/8--6-----6--------------6----------------| 
A|--6-6-6-6-6-------------------8--------6-8------------------| 
E|-----------------------------------------------4-46-6------|  till the end 



/ - slide up 
		  

See also:

bass Red Hot Chili Peppers - Scar Tissue bass Rivermaya - 214 bass Audioslave - Shadow On The Sun bass Rivermaya - Awit Ng Kabataan bass Audioslave - Seven Nation Army bass Red Hot Chili Peppers - Charlie
e-chords

Other versions:

bass Dance Gavin Dance - County
auto scroll beats size up size down change color hide chords drawings
tab show chords e-chords YouTube Clip e-chords hide all tabs e-chords go to top tab

share