Cypress Hill

Amplified

Cypress Hill

bass

save to print version add songbook text version e-mail correct tuner
chordsukulelecavacokeyboardtabbassdrumsharmonicaflute Guitar Pro
close

there isn't a video lesson for this song

chords

Amplified

	  		


  
Tabbed by eD!
I haven't put it all in order cause i cant be arsed. Do it yourself! its easy to figure out.

G----------------------------------------------------------------------5------
D-------5---5---7-------------5--5--7--*---5-5-7---------5-5-7-----7-----5--7-
A------------------5---5---7------------------------5-5-7----------------0----
E-----------------------------------------------------------------------------

G-----------------------------------------------------------------------------
D--------------------------------------------------------------5--------------
A----------------------5---5---7----------------5--5---7---------7-------5--7-
E------------------------------------5--5--7-------------------------0--------

G-----------------------------------------------------------------------------
D-----------------------------------------------------------------------------
A-----3--3--5----------------3--3--5------------------------------------------
E------------------3---3--5----------------0--3-3-3---------------------------

G-----------------------------------------------------------------------------
D------------------------------------------------------5----------------------
A----------5---5---7----------------------5---5---7---------7------5---7------
E-------------------------5---5---7----------------------------0--------------

G-----------------------------------------------------------------------
D--- -------------------------------------------------------------------
A 5--5--7---5--5--7--------------5--5--7--5--5--7-------0--------------
E-------------------------0--0----------------------0-0-----------------

		  

auto scroll beats size up size down change color hide chords drawings
tab show chords e-chords YouTube Clip e-chords hide all tabs e-chords go to top tab

share