CryoShell

Dont Look Down

CryoShell

bass

by  AMAN_CLAUDINO

save to print version add songbook text version e-mail correct tuner
chordsukulelecavacokeyboardtabbassdrumsharmonicaflute Guitar Pro
close

there isn't a video lesson for this song

chords

Dont Look Down

	  		Here's the entire bass to the song! I noted it by ear, and it sounds pretty spot on~ 
Rock on, my dudez! 

Intro (Bass starts at 0:06): 
G|-----------------------------------------------------| 
D|-----------------------------------------------------| 
A|-----------------------------------------------------| 
E|-8-8-8--------8-8-8---------8-8-8---------8-8-8------| 


verse 1 
G|-----------------------------------------------------| x2 
D|-----------------------------------------------------| 
A|-8/-------8/-------8/-------8/-8---------------------| 
E|---8--------8--------6-------------------------------| 


Pre-Chorus 
G|------------------| (Hold then transition to Chorus) 
D|------------------| 
A|------------------| 
E|-*8---------------| 


Chorus 
G|-----------------------------------------------------| 
D|-----------------------------------------------------| 
A|-----------------------------------------------------| 
E|-*8-------*6-------*3-------*4-----------------------| 

G|-----------------------------------------------------| 
D|-----------------------------------------------------| 
A|-----------------------------------------------------| 
E|-*8-------*6-------*1--------------------------------| 

G|-----------------------------------------------------| 
D|-----------------------------------------------------| 
A|-----------------------------------------------------| 
E|-/4--------------------------------------------------| Repeat Once 


verse 2 
G|-----------------------------------------------------| x2 
D|-----------------------------------------------------| 
A|-8/-------8/-------8/-------8/-8---------------------| 
E|---8--------8--------6-------------------------------| 


Pre-Chorus 
G|------------------| (Hold then transition to Chorus) 
D|------------------| 
A|------------------| 
E|-*8---------------| 


Chorus 
G|-----------------------------------------------------| 
D|-----------------------------------------------------| 
A|-----------------------------------------------------| 
E|-*8-------*6-------*3-------*4-----------------------| 

G|-----------------------------------------------------| 
D|-----------------------------------------------------| 
A|-----------------------------------------------------| 
E|-*8-------*6-------*1--------------------------------| 

G|-----------------------------------------------------| 
D|-----------------------------------------------------| 
A|-----------------------------------------------------| 
E|-/4--------------------------------------------------| Repeat Once 


Bridge (2:39): 
G|-----------------------------------------------------| 
D|-----------------------------------------------------| 
A|-----------------------------------------------------| 
E|-*8-------*6-------*3-------*4-----------------------| 


Outro 
G|-----------------------------------------------------| 
D|-----------------------------------------------------| 
A|-----------------------------------------------------| 
E|-*8------------*8------------*8------------*8--------| 

G|-----------------------------------------------------| 
D|-----------------------------------------------------| 
A|-----------------------------------------------------| 
E|-*Rest*------------------------------------=====-----| 



************************************ 

| /  Slide up 
| *  Natural harmonic 


************************************ 
		  

See also:

bass Deep Purple - Burn (ver. 2) bass Deep Purple - Smoke On The Water (ver. 3) bass Deep Purple - Strange kind of woman bass Deep Purple - Into The Fire bass Deep Purple - Burn Ver.(2) bass Deep Purple - Smoke On The Water
e-chords

Other versions:

bass CryoShell - Dont Look Down
auto scroll beats size up size down change color hide chords drawings
tab show chords e-chords YouTube Clip e-chords hide all tabs e-chords go to top tab

share