Creed

home > Creed

What If Bass Tab

Creed

Difficulty: BeginnerBeginner

tuner correct add songbook print version text version save to e-mail
chordsukulelecavacokeyboardtabbassdrummharmonicsflute Guitar Pro
chords

What If

Year: 1999 - Album: Greatest Hits (w/ Bonus DVD)

(Scott Stapp)

  		




 
 
ALBUM: Human Clay
LABEL: Wind-up Entertainment, Inc.
TAB DONE BY: Nosfuratu
I have gone through and through the sites trying to find a person who can sit down
and listen to the music and tab it right, but since no one else can seem to get it
close to right here it is, most all of it is right the only part I am not sure on is
the solo.


INTRO  --NO BASS—

VERSE:
G ------------------------------
D ------------------------------     X8
A ------------------3-h5-—1-----
D – 0—00---3-h5-0-------0--2----
CHORUS:
G --------------------------------------------------------------------------- 
D ---------------------------------------2-h5-----------------------2-h5----- 
A –1-1-1--1--3-3-3---1--------------3-h5---------1------------3-h5--------1--
D ------0---0------0----2----0--00-------------0---2—--0--00------------0---2 
Play twice, then play this at end of chorus instead of the open 1 2 thing.
D --0----12\- 

VERSE 2: 
G -----------------------------   ------------
D -----------------------------   ------------
A -----------------3-h5---1----   ------------
D –0—00---3-h5-0--------0----2-   --0---12\---
Play seven times, then play that open and 12 slide.
(Chorus again then bridge)
BRIDGE:
G -----------------------------------
D ----------------------------------- 
A -----------------------------------
D –0-0------0-00------0-0------0-0-6-
SOLO: 
IM SURE THIS PART IS CORRECT, BUT AS THE SOLO GOES
ON THERE ARE VERIATIONS I HAVEN’T CAUGHT THEM
ALL YET BUT SOME ARE SLIDES AND SUCH BUT IF YOU
LISTEN CAREFULY YOU MIGHT CATCH THEM I WILL
UPDATE THIS WHEN I FIGURE THEM OUT
G --------------------------------------
D ---------------------------------3---- 
A -----5----9-8---------9-8---3-h5----6- 
D –00----0-------0-0-0------0----------- 

THIS PART IS REALLY EASY JUST LISTEN FOR TIMING
G --------------------------------------  
D --------------------------------------
A --------------------------------------
D –0-00-4-0---00-3-0-4\3—0-00-4-0---00-2

IT GOES THROUGH THERE FOR A WHILE THEN BACK INTO THE CHORUS, THEN FININSHES WITH THE EASY PART AGAIN.
Please rate this tab, cause if I can keep a 5 star rating more people will view, and then maybe they can post the variations In the solo.

	  

Search Paypal
auto scroll beats size up size down change color hide chords drawings
tab show chords e-chords YouTube Clip e-chords hide all tabs e-chords go to top tab