Cream

Crossroads

Cream

bass

save to print version add songbook text version e-mail correct tuner
chordsukulelecavacokeyboardtabbassdrumsharmonicaflute Guitar Pro
close

there isn't a video lesson for this song

chords

Crossroads

Year: 1995 - Album: The Very Best of Cream

	  		

This is just a standard 12-bar blues riff and I think it is pretty accurate. 

Riff A
G:----------------------------
D:-----7-5-7-5-7575-----
A:-----------------------7---        x1
E:---5-----------------------

Riff B
G:----7-5-7-5-7575------
D:----------------------7----
A:--7------------------------            x1
E:-----------------------------

Then play
Riff A x2
Riff B x2
Riff A x2

G:----9-7-9-7-9797-----
D:----------------------9----
A:--9------------------------    x1
E:---------------------------

Then you go back to Riff B play once
Then you go back to Riff A play twice then the 12 bars start again

Jack Bruce does some cool bass lines on the 12 fret when Clapton is doing his solo but is just improvisation so you can do anything as long as is goes with the 12-bar blues

		  

See also:

bass Coldplay - A Whisper bass Eric Clapton - Cocain bass MotorHead - Ace of Spades bass Coldplay - The Scientist (ver. 2) bass Billy Idol - Eyes without a face bass The Beatles - A Day in the Life
e-chords

Other versions:

bass Cream - Crossroads
auto scroll beats size up size down change color hide chords drawings
tab show chords e-chords YouTube Clip e-chords hide all tabs e-chords go to top tab

share