Counting Crows

home > Counting Crows

Round Here (ver. 2) Bass Tab

Counting Crows

Difficulty: IntermediateIntermediate

tuner correct add songbook print version text version save to e-mail
chordsukulelecavacokeyboardtabbassdrumsharmonicsflute Guitar Pro
chords

Round Here (ver. 2)

  		



August And Everything After

Ok this is a VERY easy song i got in one try just by Listening to it and belive me this is right

G----------------------------------------------------
D-----------------------------------------------------
A---------------------------3---------5----------------
E----0---------3------------------------------------0---
That is the chorus and the verses very simple follow the vocals and youll get it easy.
Bridge)
G----------------------------------------------------
D-----------------------------------------------------
A--------------------------------------------------------------5------5------3---5-
E--------5---5------3-----5------5---------5--------3-----5-----------------------

im TOTALLY sureabout the bridge but mess around with those fingerings and it will be right

Follow Adam the whole song and listen the bass part is easy to hear so youll knbow if your off.

any questions or comments email me at [email protected]