Counting Crows

home > Counting Crows

Round Here Bass Tab

Counting Crows

Difficulty: IntermediateIntermediate

tuner correct add songbook print version text version save to e-mail
chordsukulelecavacokeyboardtabbassdrummharmonicsflute Guitar Pro
chords

Round Here

  		

Band: 
 
Album: Number 1 from August and everything after

there is no bass for a while intil the first chorus starts.
When it comes, play these root notes: C, D, E,G:
G---------------------------------
D---------------------2-----------
A---3--------5--------------------
E------------------------------3--

After the first Chorus, play this line until 2nd chorus:

G----------------------------------------------
D------5--------------------------------5-2-0--
A--3--3--3----5-3-2-0-----------3-5-3----------
E-----------------------0--0-0-----------------

2nd Chorus goes like this:
G------------------------------------
D-------------------2-2-2------------
A-----3-3-3--5-5-5-----2-------------
E--------3------5----------3-3-3-3---

After this the song goes funk, and shifts from the key of G 
to the key of A. The bass goes like this
G-------------------------------------
D-------------------------------------
A------------------------------3-3h5--
E---5-5--5--3-3--3-0h3-5-5--5---------

G------------------------------------
D------------------------------------
A------------------------------3--5--(let ring)
E---5-5--5--3-3--3-0h3-5-5--5--------

Than you play the same root notes as the first chorus (C,D,E,G)
when the third verse starts.
G---------------------------------
D---------------------2-----------
A---3--------5--------------------
E------------------------------3--

The third verse is than played like the second with small variations
(you can make some yourself as long as you stay in the key of G)
G----------------------------------------------
D------5--------------------------------5-2-0--
A--3--3--3----5-3-2-0-----------3-5-3----------
E-----------------------0--0-0-----------------



After you finish the third verese you play the third chorus which
is the same pattern as the second one with variations until the 
of the song.you can improvise a bit for fun.
G------------------------------------
D-------------------2-2-2------------
A-----3-3-3--5-5-5-----2-------------
E--------3------5----------3-3-3-3---

There you go, thats pretty much the whole song. Its simple and fun
to play, you cna find easy variations too. Let me know what you 
think of the tab and tell me if i need to modify it.

	  

Search Paypal
auto scroll beats size up size down change color hide chords drawings
tab show chords e-chords YouTube Clip e-chords hide all tabs e-chords go to top tab