Collective Soul

home > Collective Soul

Shine Bass Tab

Collective Soul

Difficulty: BeginnerBeginner

tuner correct add songbook print version text version save to e-mail
chordsukulelecavacokeyboardtabbassdrumsharmonicsflute Guitar Pro
chords

Shine

  		

  (short version without guitar solo)
 
Normal Tuning
Tabber: [email protected]

Verse

G-------------------------------|
D----------------------4*-------|
A-4*-----4*-----2*--------------|
E-------------------------------|

Pre-chorus

G----------------------------------|
D----------------------------------|
A-4-4-4-4-4-4-2---4-4-4-4-4-4-2----|
E-------------------------------2--|

Chorus

G-----------------------|
D-----------------------|
A-2*------------4*------|
E--------2*-------------|

Chorus 2

G-----------------------------------------------------------------|
D-----------------------------------------------------------------|
A-2-2-2-2-2-2-2-2-----------------4-4-4-4-4-4-4-4-4-4-4-4-4-4-4-4-|
E-----------------2-2-2-2-2-2-2-2---------------------------------|

Chorus end

G---------------------------------|
D---------------------------------|
A-2-2-2-2-2-2-2-2-----------------|
E-----------------2-2-2-2-2-2-2-2-|

In Order:

Verse x3
Pre-chorus x2
Chorus x4
Verse x3
Pre-chorus x2
Chorus x4
Guitar break no bass
Pre-chorus x2
Chorus x4
Chorus 2 x3
Chorus end x1
Pre-chorus x2

	  

Search Paypal
auto scroll beats size up size down change color hide chords drawings
tab show chords e-chords YouTube Clip e-chords hide all tabs e-chords go to top tab