Coldplay

home > Coldplay

Clocks Bass Tab

Coldplay

Difficulty: ExpertExpert

tuner correct add songbook print version text version save to e-mail
chords

Clocks

Year: 2002 - Album: Buddha Renditions Of Lounge Coldplay

(Guy Berryman/ Jonny Bucland/ Will Champion/ Chris Martin)

Key:  Eb More
Clocks Key A#A#
Clocks Key BB
Clocks Key CC
Clocks Key C#C#(one step down)
Clocks Key DD(half step down)
Clocks Key EbEb(original key)
Clocks Key EE(half step up)
Clocks Key FF(one step up)
Clocks Key F#F#
Clocks Key GG
Clocks Key G#G#
Clocks Key AA
  		

Transcribed By: Ryan Huntman  (IbanezBassMX)
Email: [email protected]

Standard Tuning

Guitar plays for a little while, then bass comes in
G------------------------------------------------------------------
D------------------------------------------------------------------
A-6-6-6-6-6-6-6-6---------------------------------8-8-8-8-8-8-8-8--
E-----------------6-6-6-6-6-6-6-6-6-6-6-6-6-6-6-6------------------

Verses  (0:29, 1:28)
G------------------------------------------------------------------
D------------------------------------------------------------------  X5
A-6-6-6-6-6-6-6-6---------------------------------8-8-8-8-8-8-8-8--
E-----------------6-6-6-6-6-6-6-6-6-6-6-6-6-6-6-6------------------

Chorus  (0:58, 1:57)
G-------------------------------------------------------------------
D-------------------------------------------------------------------
A-6-6-6-6-6-6-6-6---------------------------------------------------
E-----------------6-6-6-6-6-6-6-6-6-6-6-6-6-6-6-6\1-1-1-1-1-1-1-1/--

G-------------------------------5----------------------------------
D-------------6-8-8-8-8-8-8-8-8---8-8-8-6-6-6-5-5------------------  X2
A-6-6-6-6-6-6------------------------------------------------------
E-------------------------------------------------4-4-4-4-4-4-4-4--

Interlude  (2:26)
G-------------------------------5----------------------------------
D-------------6-8-8-8-8-8-8-8-8---8-8-8-6-6-6-5-5------------------
A-6-6-6-6-6-6------------------------------------------------------
E-------------------------------------------------4-4-4-4-4-4-4-4--

Bridge  (2:56)
G------------------------------------------------------------------
D-4-4-4-4-4-4-4-4-4-4-4-4-4-4-4-4----------------------------------
A---------------------------------4-4-4-4-4-4-4-4------------------
E-------------------------------------------------4-4-4-4-4-4-4-4--

G------------------------------------------------------------------
D-------------------------------------------------6-6-6-6-6-6-6-6--
A---------------------------------4-4-4-4-4-4-4-4------------------
E-2-2-2-2-2-2-2-2-2-2-2-2-2-2-2-2----------------------------------

G------------------------------------------------------------------
D-4-4-4-4-4-4-4-4-4-4-4-4-4-4-4-4----------------------------------
A---------------------------------4-4-4-4-4-4-4-4------------------
E-------------------------------------------------4-4-4-4-4-4-4-4--

G-------------------------------------------------------------------
D-------------------------------------------------------------------
A----------------------------------9-9-9-9-9-9-9-9-9-9-9-9-9-9-9-9--
E-2-2-2-2-2-2-2-2-2-2-2-2-2-2-2-2/----------------------------------

(3:25) Bass tacet on repeat
G--------
D--------
A-6~~~~--
E--------

(3:40)
G-------------------------------5----------------------------------
D-------------6-8-8-8-8-8-8-8-8---8-8-8-6-6-6-5-5------------------
A-6-6-6-6-6-6------------------------------------------------------
E-------------------------------------------------4-4-4-4-4-4-4-4--

(4:09)
G-------------------------------5----------------------------------
D-------------6-8-8-8-8-8-8-8-8---8-8-8-6-6-6-5-5------------------
A-6-6-6-6-6-6------------------------------------------------------
E-------------------------------------------------4-4-4-4-4-4-4-4--

Outro  (4:38)
G-----------------
D-----------------
A-6~~---------8~--
E-----6~~-6~~-----

Thats it, Enjoy!
GW May 2003
Please rate this tab, Thanks.

	  

Search Paypal
auto scroll beats size up size down change color hide chords drawings
tab show chords e-chords YouTube Clip e-chords hide all tabs e-chords go to top tab