Coal Chamber

Loco 5 String

Coal Chamber

bass

save to print version add songbook text version e-mail correct tuner
chordsukulelecavacokeyboardtabbassdrumsharmonicaflute Guitar Pro
close

there isn't a video lesson for this song

chords

Loco 5 String

	  		

Coa lchamber
Loco
Tabbed by adam Williams, (machinevayne11)

Tuning: B E A D G, if you’ve only got a 4 string, just down tune. (That’s what Rayna does anyway)

Intro: x1

|----------------|----------------|----------------|----------------|
|----------------|----------------|----------------|----------------|
|----------------|----------------|----------------|----------------|
|----------------|----------------|----------------|----------------|
|--0~~~~~~~~0----|--0-0~~~~~~0----|--0-0~~~~~~0----|--0-0~~~~~~0----|


|-----------------|----------------|----------------|----------------|
|-----------------|----------------|----------------|----------------|
|-----------------|----------------|----------------|----------------|
|-----------------|----------------|----------------|----------------|
|---0-0~~~~~~0----|--0-0~~~~~~0----|--0-0~~~~~~0----|--0-0~~~~~~0----|

|-------------------------------------------------------------------|
|-------------------------------------------------------------------|
|-------------------------------------------------------------------|
|-------------------------------------------------------------------|
|--x--x--x-x-x--0~~~~~~~~~~~~~~~~~~~~~~~~~~~------------------------|


Main riff: x8

|------------------------------------------------------------------------|
|------------------------------------------------------------------------|
|------------------------------------------------------------------------|
|------------------------------------------------------------------------|
|--0-2—0-2—0-2—0-2--3-2----0-2—0-2—0-2—0-2--8—7--------------------------|


Verse: x8

|------------------------------------------------------------------------|
|------------------------------------------------------------------------|
|------------------------------------------------------------------------|
|------------------------------------------------------------------------|
|--0-2—0-2—0-2—0-2--3-2----0-2—0-2—0-2—0-2--8—7--------------------------|


Chorus: x1

|-----------------------------------------------------------------------------|
|-----------------------------------------------------------------------------|
|-----------------------------------------------------------------------------|
|-----------------------------------------------------------------------------|
|--2--2--2-2-2----2--2--2-2-2----2--2--2-2-2----2--2--2-2-2-------------------|

|-----------------------------------------------------------------------------|
|-----------------------------------------------------------------------------|
|-----------------------------------------------------------------------------|
|-----------------------------------------------------------------------------|
|--1--1--1-1-1----1--1--1-1-1----1--1--1-1-1----1--1--1-1-1-------------------|

|-----------------------------------------------------------------------------|
|-----------------------------------------------------------------------------|
|-----------------------------------------------------------------------------|
|-----------------------------------------------------------------------------|
|--0~~~~~~~~~~~~~~~~~~~~~~~~~-------------------------------------------------|

Main riff: x4

Verse: x4

Chorus: x1

Interlude Part 1: x4

|-----------------------|
|-----------------------|
|-----------------------|
|-----------------------|
|--2-3-2-0--2-3-2-------|


Interlude part 2: x4

|-----------------------------------|
|-----------------------------------|
|-----------------------------------|
|--3~~~~~~~~--4~~~~~~~~-------------|
|-----------------------------------|


Interlude part 3:

|----------------|----------------|----------------|----------------|
|----------------|----------------|----------------|----------------|
|----------------|----------------|----------------|----------------|
|----------------|----------------|----------------|----------------|
|--0~~~~~~~~0----|--0-0~~~~~~0----|--0-0~~~~~~0----|--0-0~~~~~~0----|


|-------------------------------------------------------------------|
|-------------------------------------------------------------------|
|-------------------------------------------------------------------|
|-------------------------------------------------------------------|
|--x--x--x-x-x—0~~~~~~~~~~~~~~~~~~~~~~~~~~~-------------------------|


Main riff: x4

Verse: x4

Chorus: x1

Ending: x1


|-----------------------|
|-----------------------|
|-----------------------|
|-----------------------|
|--2-3-2-0--2-3-2-------|

		  

See also:

bass Marcus Miller - Moons bass Children Of Bodom - Angels Dont Kill bass Cky - Eye of the Tiger bass Smash Mouth - All Star (ver.2) bass Deftones - Be quiet and drive bass Everclear - I Will Buy You A New Life
e-chords

Other versions:

bass Coal Chamber - Loco 5 String
auto scroll beats size up size down change color hide chords drawings
tab show chords e-chords YouTube Clip e-chords hide all tabs e-chords go to top tab

share