Clutch

Weird Times

Clutch

bass

by  JOAOEWERTON

save to print version add songbook text version e-mail correct tuner
chordsukulelecavacokeyboardtabbassdrumsharmonicaflute Guitar Pro
close

there isn't a video lesson for this song

chords

Weird Times

	  		Verse 
(0:02-0:31) 

G |----------------------------------------------------| 
D |----------------------------------------------------| 
A |-----------7-----------------------7----------------| 
E |--7h-9--9-----9--9--9-----7h-9--9-----9--9--9-------| 


G |----------------------------------------------------| 
D |----------------------------------------------------| 
A |--------------------------------------7-----9-------| 
E |--9h-7--7--7-----7--11h7--7--7-----7----------------| 


(0:32-0:34) 
G |----------------------------| 
D |----------------------------| 
A |----------------------------| 
E |--9h-7s---------------------| 


Chorus 

(0:35-0:54) 

G |----------------------------------------------------| 
D |----------------------------------------------------| 
A |-----------7-----------------------7----------------| 
E |--7h-9--9-----------7h-9--7h-9--9-----------7h-9----| 


G |----------------------------------------------------| 
D |----------------------------------------------------| 
A |--9--7-----7--------------10-9--7--9--7-------------| 
E |--------9-----------7h-9----------------------------| 


G |----------------------------------------------------| 
D |----------------------------------------------------| 
A |-----------7-----------------------7----------------| 
E |--7h-9--9-----------7h-9--7h-9--9-----------7h-9----| 


G |----------------------------------------------------| 
D |----------------------------------------------------| 
A |--9--7-----7--------------------10----9-----7-------| 
E |--------9-----------7h-9----------------------------| 


Verse 
(0:55-1:14) 

G |----------------------------------------------------| 
D |----------------------------------------------------| 
A |-----------7-----------------------7----------------| 
E |--7h-9--9-----9--9--9-----7h-9--9-----9--9--9-------| 


G |----------------------------------------------------| 
D |----------------------------------------------------| 
A |--------------------------------------7-----9-------| 
E |--9h-7--7--7-----7--11h7--7--7-----7----------------| 


(1:15-1:17) 
G |----------------------------| 
D |----------------------------| 
A |----------------------------| 
E |--9h-7s---------------------| 


Chorus 

(1:18-1:37) 

G |----------------------------------------------------| 
D |----------------------------------------------------| 
A |-----------7-----------------------7----------------| 
E |--7h-9--9-----------7h-9--7h-9--9-----------7h-9----| 


G |----------------------------------------------------| 
D |----------------------------------------------------| 
A |--9--7-----7--------------10-9--7--9--7-------------| 
E |--------9-----------7h-9----------------------------| 


G |----------------------------------------------------| 
D |----------------------------------------------------| 
A |-----------7-----------------------7----------------| 
E |--7h-9--9-----------7h-9--7h-9--9-----------7h-9----| 


G |----------------------------------------------------| 
D |----------------------------------------------------| 
A |--9--7-----7--------------------10----9-----7-------| 
E |--------9-----------7h-9----------------------------| 


Bridge 

(1:38-1:57) 

G |----------------------------|----------------| 
D |----------------------------|----------------| 
A |-----------------------7----|----------------| 
E |--9s------------------------|--9s------------| 


G |----------------------------------------------------| 
D |----------------------------------------------------| 
A |--------------------------9h-7----------------------| 
E |--7-----------------------------9--7--9-------------| 


G |----------------------------------------------------|| 
D |----------------------------------------------------|| 
A |-----------2--------4--------7--------9--7--9s-11---|| 
E |--4-------------------------------------------------|| 


Solo 

(1:58-2:17) 

G |----------------------------------------------------| 
D |----------------------------------------------------| 
A |-----------7-----------------------7----------------| 
E |--7h-9--9-----9--9--9-----7h-9--9-----9--9--9-------| 


G |----------------------------------------------------| 
D |----------------------------------------------------| 
A |--------------------------------------7-----9-------| 
E |--9h-7--7--7-----7--11h7--7--7-----7----------------| 


Chorus 

(2:18-2:57) 

G |----------------------------------------------------| 
D |----------------------------------------------------| 
A |-----------7-----------------------7----------------| 
E |--7h-9--9-----------7h-9--7h-9--9-----------7h-9----| 


G |----------------------------------------------------| 
D |----------------------------------------------------| 
A |--9--7-----7--------------10-9--7--9--7-------------| 
E |--------9-----------7h-9----------------------------| 


G |----------------------------------------------------| 
D |----------------------------------------------------| 
A |-----------7-----------------------7----------------| 
E |--7h-9--9-----------7h-9--7h-9--9-----------7h-9----| 


G |----------------------------------------------------| 
D |----------------------------------------------------| 
A |--9--7-----7--------------------10----9-----7-------| 
E |--------9-----------7h-9----------------------------| 


Outro 

G |---------------------------| 
D |---------------------------| 
A |---------------------7s----| 
E |--9------------------------| 



Legend 
h - hammer on/pull off 
s - slide 
		  

See also:

bass Simon & Garfunkel - The sounds of silence bass Live - Dolphin“s Cry bass Guns N' Roses - Sweet Child O' Mine bass Guns N' Roses - Civil War bass 4 Non Blondes - What`s up (ver. 1) bass Guns N' Roses - Sweet Child O' Mine (ver. 3)
e-chords

Other versions:

bass Clutch - Weird Times
auto scroll beats size up size down change color hide chords drawings
tab show chords e-chords YouTube Clip e-chords hide all tabs e-chords go to top tab

share