Clutch

home > Clutch

Sonic Counselor Bass Tab

Clutch

Difficulty: nolevelnolevel

by alyslima

tuner correct add songbook print version text version save to e-mail
chordsukulelecavacokeyboardtabbassdrumsharmonicsflute Guitar Pro
chords

Sonic Counselor

	  Intro 
G |----------------------------------------------------| 
D |----------------------------------------------------| 
A |----------------------------------------------------| 
E |--------------------------0--0--0--3--3--3--4--4----| 

Verse 
G|----------------------------------------------------| 
D|----------------------------------------------------| 
A|--0-----0--3-----3--5--3--0-----0--3-----3--5--3----| X3 
E|----------------------------------------------------| 

G|----------------------------------------------------| 
D|----------------------------------------------------| 
A|--0-----0--3-----3--5--3----------------------------| 
E|--------------------------0--0--0--3--3--3--4--4----| 

Chorus 
G|----------------------------------------------------|----------------------------| 
D|----------------------------------------------------|----------------------------| 
A|--------7-------------------------------------------|-----7----------------------| 
E|--0-----------------------------------5h-6h-7-------|--0-----------3-----3-------| 

Verse 
G|----------------------------------------------------| 
D|----------------------------------------------------| 
A|--0-----0--3-----3--5--3--0-----0--3-----3--5--3----| X3 
E|----------------------------------------------------| 

G|----------------------------------------------------| 
D|----------------------------------------------------| 
A|--0-----0--3-----3--5--3----------------------------| 
E|--------------------------0--0--0--3--3--3--4--4----| 

Chorus 
G|----------------------------------------------------|----------------------------| 
D|----------------------------------------------------|----------------------------| 
A|--------7-------------------------------------------|-----7----------------------| 
E|--0-----------------------------------5h-6h-7-------|--0-----------3-----3-------| 

Solo 
G|----------------------------------------------------|----------------------------------------------------| 
D|--------------------------------3--3--4--4--5--5----|----------------------------------------------------| 
A|--0--0--0--3--3--3--4--4--5--5----------------------|--0--0--0--3--3--3--4--4----------------------------| 
E|----------------------------------------------------|--------------------------0--0--3--3--4--4--5--5----| 

G|----------------------------------------------------|----------------------------------------------------| 
D|--------------------------------3--3--4--4--5--5----|----------------------------------------------------| 
A|-----0--0--3--3--3--4--4--5--5----------------------|--0--0--0--3--3--3--4--4----------------------------| 
E|----------------------------------------------------|--------------------------0--0--3--3--4--4--5--5----| 

Breakdown (?) 
G|--------7----------------|--------5-----------------|--------------7--5----------------------------------| 
D|-------------------------|--------------------------|-----------------------7-----6-----5--5-----3-------| 
A|--5--5-------------------|--3--3--------------------|----------------------------------------------------| 
E|-------------------------|--------------------------|----------------------------------------------------| 

Verse 
G|----------------------------------------------------| 
D|----------------------------------------------------| 
A|--0-----0--3-----3--5--3--0-----0--3-----3--5--3----| X3 
E|----------------------------------------------------| 

G|----------------------------------------------------| 
D|----------------------------------------------------| 
A|--0-----0--3-----3--5--3----------------------------| 
E|--------------------------0--0--0--3--3--3--4--4----| 

Chorus 
G|----------------------------------------------------|----------------------------| 
D|----------------------------------------------------|----------------------------| 
A|--------7-------------------------------------------|-----7----------------------| 
E|--0-----------------------------------5h-6h-7-------|--0-----------3-----3-------| 

G|--------------| 
D|--------------| 
A|--------------| 
E|--0-----0-----| 


Legend: 
h - hammer on 
	  

there isn't a video lesson for this song

request
Search Paypal
auto scroll beats size up size down change color hide chords drawings
tab show chords e-chords YouTube Clip e-chords hide all tabs e-chords go to top tab