Citizen

World

Citizen

bass

by  TERCMORAES

save to print version add songbook text version e-mail correct tuner
chordsukulelecavacokeyboardtabbassdrumsharmonicaflute Guitar Pro
close

there isn't a video lesson for this song

chords

World

	  		
Verse 0:21 

G|---------------------------------------------------------------------------| 
D|---------------------------------------------------------------------------| 
A|----------------------8--8--6h8p6-----------------------8--8--6h8p6--------| 
E|-/-6--6--6-----4--4------------------6--6--6-----4--4----------------------| 

G|---------------------------------------------------------------------------| 
D|---------------------------------------------------------------------------| 
A|-------------------8--8--6h8p6--------8--6-----6--4-----6--4---------------| 
E|-6--6--6-----4--4------------------6--------4--------2--------2------------| 


Chorus 0:49 

G|---------------------------------------------------------------------------| 
D|---------------------------------------------------------------------------| 
A|---------------------------------------------------------------------------| 2x 
E|-6--6--6--6---6---4--4--4--4---4---2--2--2--2---2---2--2--2--2---2---------| 


verse 2 1:10 

G|---------------------------------------------------------------------------| 
D|---------------------------------------------------------------------------| 
A|----------------------------------------------------8--8--6h8p6------------| 
E|-6--6--6--6-----4--4--4--4-----6--6--6--6-----4--4-------------------------| 

G|------------------------------------------------------------------------------------------------------| 
D|------------------------------------------------------------------------------------------------------| 
A|----------------------8-/-11-6h8p6-------4--------4--3-----4--8--8-------4--------4--3-----4--8--8----| 
E|-6--6--6--6-----4--4------------------6-----6--4--------2-------------6-----6--4--------2-------------| 


Chorus 2 1:46 

G|---------------------------------------------------------------------------| 
D|---------------------------------------------------------------------------| 
A|---------------------------------------------------------------------------| 2x 
E|-6--6--6--6---6---4--4--4--4---4---2--2--2--2---2---2--2--2--2---2---------| 

G|---------------------------------------------------------------------------| 
D|---------------------------------------------------------------------------| 
A|----------------------------------/-8--------------------------------------| 2x 
E|-6--6--6--6---6---4--4--4--4---4-------2--2--2--2---2---2--2--2--2---2-----| 


verse 3 2:17 

G|---------------------------------------------------------------------------| 
D|---------------------------------------------------------------------------| 
A|---------------------------------------------------------------------------| 2x 
E|-6-------------------4-------------------2---------------------------------| 

G|---------------------------------------------------------------------------| 
D|---------------------------------------------------------------------------| 
A|---------------------------------------------------------------------------| 
E|-6--6--6--6----------4--4--4--4----------2--2--2--2---------2--2--2--2-----| 

G|-------------------------------------------------------------------------------------| 
D|-------------------------------------------------------------------------------------| 
A|-------------------------------------------------------------------------------------| 
E|-6--6--6--6----------4--4--4--4----------2--2--2--2---------2--2--2--2-2-2-2-2-2-2-2-| 


Chorus 3 2:58 

G|---------------------------------------------------------------------------| 
D|---------------------------------------------------------------------------| 
A|---------------------------------------------------------------------------| 2x 
E|-6--6--6--6---6---4--4--4--4---4---2--2--2--2---2---2--2--2--2---2---------| 

G|---------------------------------------------------------------------------| 
D|---------------------------------------------------------------------------| 
A|----------------------------------/-8--------------------------------------| 2x 
E|-6--6--6--6---6---4--4--4--4---4-------2--2--2--2---2---2--2--2--2---2-----| 

G|---------------------------------------------------------------------------| 
D|---------------------------------------------------------------------------| 
A|---------------------------------------------------------------------------| 
E|-6----------------4-------------.------2-----------------------------------| 



************************************ 

| h   Hammer-on 
| p   Pull-off 
| /   Slide up 
| \   Slide down| 

************************************ 
		  

See also:

bass Deep Purple - Smoke On The Water bass Deep Purple - Lady Double Dealer bass Deep Purple - Burn Ver.(2) bass Deep Purple - Strange kind of woman bass Deep Purple - Smoke On The Water (ver. 2) bass Deep Purple - Speed King
e-chords

Other versions:

bass Citizen - World bass Depeche Mode - World in my eyes bass Black Uhuru - World is africa bass Morcheeba - World Looking In bass Stick Figure - World On Fire Remix
auto scroll beats size up size down change color hide chords drawings
tab show chords e-chords YouTube Clip e-chords hide all tabs e-chords go to top tab

share