Citizen

Jet

Citizen

bass

by  ANG-LETRA

save to print version add songbook text version e-mail correct tuner
chordsukulelecavacokeyboardtabbassdrumsharmonicaflute Guitar Pro
close

there isn't a video lesson for this song

chords

Jet

	  		Verse 0:14 

G|---------------------------------------------------------------------------| 
D|---------------------------------------------------------------------------| 
A|---------------------------------------------------------------------------| 3x 
E|-7-7--7--10-\-3-3-/-10-10-10-10--3-2--3--3-3-3-2-3-2-3-2-------------------| 

G|---------------------------------------------------------------------------| 
D|---------------------------------------------------------------------------| 
A|---------------------------------------------------------------------------| 
E|-7-7--7--10-\-3-3-/-10-10-10-10--------------------------------------------| 


Chorus 0:43 

G|---------------------------------------------------------------------------| 
D|---------------------------------------------------------------------------| 
A|-2--2--2-2-2-2--5-5--5-5-5-5-----------------------------------------------| 
E|-----------------------------3--3--3-3-3-3--3-3-3-3-3-3-3-3----------------| 

G|---------------------------------------------------------------------------| 
D|---------------------------------------------------------------------------| 
A|--------------------------------------------5-5-5-5-5-/-7-7-7--------------| 
E|-2--2--2-2-2-5--5-5--5-5-5-5-3--3--3-3-3-3---------------------------------| 


verse 2 0:57 

G|---------------------------------------------------------------------------| 
D|---------------------------------------------------------------------------| 
A|---------------------------------------------------------------------------| 4x 
E|-7-7--7--10-\-3-3-/-10-10-10-10--3-2--3--3-3-3-2-3-2-3-2-------------------| 


Pre-Chorus 1:32 

G|---------------------------------------------------------------------------| 
D|---------------------------------------------------------------------------| 
A|-2-/-14--------------------------------------------------------------------| 
E|-------------------------------------------------------------3-3-3-3-3-3-3-| 


Chorus 2 1:40 

G|---------------------------------------------------------------------------| 
D|---------------------------------------------------------------------------| 
A|-2--2--2-2-2-2--5-5--5-5-5-5-----------------------------------------------| 
E|-----------------------------3--3--3-3-3-3--3-3-3-3-3-3-3-3----------------| 

G|---------------------------------------------------------------------------| 
D|---------------------------------------------------------------------------| 
A|--------------------------------------------5-5-5-5-5-/-7-7-7--------------| 
E|-2--2--2-2-2-5--5-5--5-5-5-5-3--3--3-3-3-3---------------------------------| 

G|---------------------------------------------------------------------------| 
D|---------------------------------------------------------------------------| 
A|-2--2--2-2-2-2--5-5--5-5-5-5-----------------------------------------------| 
E|-----------------------------3--3--3-3-3-3--3-3-3-3-3-3-3-3----------------| 

G|---------------------------------------------------------------------------| 
D|-4--4--4-4-4-7--7-7--7-7-7-7-----------------------------------------------| 
A|---------------------------------------------------------------------------| 
E|-----------------------------3-3-3-3-3-3-3-3-3-3-3-3-3-3-3-3---------------| 


Bridge 2:23 

G|---------------------------------------------------------------------------| 
D|---------------------------------------------------------------------------| 
A|---------------------------------7-7-7-7-7-7-7-7-7-7-7-7-7-/-10-10-10------| 
E|-3-3-3-3-3-3-3-3-3-3-3-3-3-3-3-3-------------------------------------------| 
                                                                                2x 
G|---------------------------------------------------------------------------| 
D|---------------------------------------------------------------------------| 
A|-2-2-2-2-2-2-2-2-2-2-2-2-2-/-5-5-5-----------------------------------------| 
E|-----------------------------------2-2-2-2-2-2-2-2-2-2-2-2-2-2-2-2---------| 


Pre-Chorus 2:59 

G|---------------------------------------------------------------------------| 
D|---------------------------------------------------------------------------| 
A|-2-/-14--------------------------------------------------------------------| 
E|-------------------------------------------------------------3-3-3-3-3-3-3-| 


Chorus 2 1:40 

G|---------------------------------------------------------------------------| 
D|---------------------------------------------------------------------------| 
A|-2--2--2-2-2-2--5-5--5-5-5-5-----------------------------------------------| 
E|-----------------------------3--3--3-3-3-3--3-3-3-3-3-3-3-3----------------| 

G|---------------------------------------------------------------------------| 
D|---------------------------------------------------------------------------| 
A|--------------------------------------------5-5-5-5-5-/-7-7-7--------------| 
E|-2--2--2-2-2-5--5-5--5-5-5-5-3--3--3-3-3-3---------------------------------| 

G|---------------------------------------------------------------------------| 
D|---------------------------------------------------------------------------| 
A|-2--2--2-2-2-2--5-5--5-5-5-5-----------------------------------------------| 
E|-----------------------------3--3--3-3-3-3--3-3-3-3-3-3-3-3----------------| 

G|---------------------------------------------------------------------------| 
D|---------------------------------------------------------------------------| 
A|--------------------------------------------5-5-5-5-5-/-7-7-7--------------| 
E|-2--2--2-2-2-5--5-5--5-5-5-5-3--3--3-3-3-3---------------------------------| 


Outro 

G|---------------------------------------------------------------------------| 
D|---------------------------------------------------------------------------| 
A|---------------------------------------------------------------------------| 
E|-7-7--7--10-\-3-3-/-10-10-10-10--3-2--3--3-3-3-2---------------------------| 


************************************ 

| /   Slide up 
| \   Slide down 

************************************ 
		  

See also:

bass Deep Purple - Burn Ver.(2) bass Deep Purple - Highway Star bass Deep Purple - Smoke On The Waterr bass Deep Purple - Strange kind of woman bass Deep Purple - Knocking At Your Back Door bass Deep Purple - Black Night
e-chords

Other versions:

bass Citizen - Jet bass System Of A Down - Jet Pilot bass System Of A Down - Jet pilot (Ver.2)
auto scroll beats size up size down change color hide chords drawings
tab show chords e-chords YouTube Clip e-chords hide all tabs e-chords go to top tab

share