Citizen

Control

Citizen

bass

by  TAMAMOREIRA

save to print version add songbook text version e-mail correct tuner
chordsukulelecavacokeyboardtabbassdrumsharmonicaflute Guitar Pro
close

there isn't a video lesson for this song

chords

Control

	  		
Verse 0:18 
G|---------------------------------------------------------------------------| 
D|---------------------------------------------------------------------------| 
A|---------------------------------------------------------------------------| 
E|-4----4--4-4----2----2--2-2----4----4--4-4----2----2--2-2------------------| 

G|---------------------------------------------------------------------------| 
D|---------------------------------------------------------------------------| 
A|----------------4----4--4-4------------------------------------------------| 
E|-0----0--0-0-------------------4----4--4-4----2----2--2-2--2-2-2-2---------| 

Chorus 0:46 
G|----------------------8----------------------------------------------------| 
D|-6--------------9--------------13-------------11---------------------------| 
A|---------------------------------------------------------------------------| 
E|---------------------------------------------------------------------------| 

G|---------------------------------------------------------------------------| 
D|---------------------------------------------------------------------------| 
A|---------------------------------------------------------------------------| 
E|-4----4--4-4----2----2--2-2----4----4--4-4----2----2--2-2------------------| 

verse 2 1:15 
G|---------------------------------------------------------------------------| 
D|---------------------------------------------------------------------------| 
A|---------------------------------------------------------------------------| 
E|-4----4--4-4----2----2--2-2----4----4--4-4----2----2--2-2------------------| 

G|---------------------------------------------------------------------------| 
D|---------------------------------------------------------------------------| 
A|----------------4----4--4-4------------------------------------------------| 
E|-0----0--0-0-------------------4----4--4-4----2----2--2-2--2-2-2-2---------| 

G|---------------------------------------------------------------------------| 
D|-------------------------------6----6--6-6----4----4--4-4------------------| 
A|----------------4----4--4-4------------------------------------------------| 
E|-0----0--0-0---------------------------------------------------------------| 

Chorus 2 1:58 
G|---------------------------------------------------------------------------| 
D|-6-6-6-6-6-6-6-6-6-6-6-6-6-6-6-6-9-9-9-9-9-9-9-9-9-9-9-9-9-9-9-9-----------| 
A|---------------------------------------------------------------------------| 
E|---------------------------------------------------------------------------| 
                                                                               2x 
G|---------------------------------------------------------------------------| 
D|---------------------------------------------------------------------------| 
A|-6-6-6-6-6-6-6-6-6-6-6-6-6-6-6-6-4-4-4-4-4-4-4-4-4-4-4-4-4-4-4-4-----------| 
E|---------------------------------------------------------------------------| 

Solo 2:27 
G|---------------------------------------------------------------------------| 
D|---------------------------------------------------------------------------| 
A|----------4-/-6-6-6-4----4-/-6-6-6----------4-/-6-6-6-4--------4-4-4-4-----| 
E|-4---------------------------------4---------------------------------------| 

Bridge 2:41 
G|---------------------------------------------------------------------------| 
D|---------------------------------------------------------------------------| 
A|-2--------------1----------------------------------------------------------| 
E|-------------------------------4--------------2----------------------------| 

G|---------------------------------------------------------------------------| 
D|---------------------4------2--6-----/-9-----------------------------------| 
A|-2----/-6-------1----------------------------------------------------------| 
E|----------------------------------------------2----2--2-2------------------| 

Chorus 3 3:10 
G|---------------------------------------------------------------------------| 
D|-6-6-6-6-6-6-6-6-6-6-6-6-6-6-6-6-9-9-9-9-9-9-9-9-9-9-9-9-9-9-9-9-----------| 
A|---------------------------------------------------------------------------| 
E|---------------------------------------------------------------------------| 
                                                                               2x 
G|---------------------------------------------------------------------------| 
D|---------------------------------------------------------------------------| 
A|-6-6-6-6-6-6-6-6-6-6-6-6-6-6-6-6-4-4-4-4-4-4-4-4-4-4-4-4-4-4-4-4-----------| 
E|---------------------------------------------------------------------------| 

G|---------------------------------------------------------------------------| 
D|---------------------------------------------------------------------------| 
A|---------------------------------------------------------------------------| 
E|-4-------------------------------------------\-----------------------------| 


************************************ 

| x  Dead note 
| /  Slide up 
| \  Slide down 

************************************ 
		  

See also:

bass Deep Purple - Smoke On The Water bass Deep Purple - Lady Double Dealer bass Deep Purple - Burn Ver.(2) bass Deep Purple - Strange kind of woman bass Deep Purple - Smoke On The Water (ver. 2) bass Deep Purple - Speed King
e-chords

Other versions:

bass Citizen - Control
auto scroll beats size up size down change color hide chords drawings
tab show chords e-chords YouTube Clip e-chords hide all tabs e-chords go to top tab

share