Chevelle

Closure

Chevelle

bass

save to print version add songbook text version e-mail correct tuner
chordsukulelecavacokeyboardtabbassdrumsharmonicaflute Guitar Pro
close

there isn't a video lesson for this song

chords

Closure

Year: 2002 - Album: Vena Sera

	  		

Band: 
 
Album: Wonder Whatís Next
Tabbed by: Chris VerKuilen ([email protected])
Tuning: Standard 5 or BEAD

Intro/Verse            
G|-------------------------------|
D|-------------------------------|
A|-2xxxx5xxxx4xxxx5-2h4p2--------|
E|-------------------------------|
B|-0xxxx3xxxx2xxxx3-0h2p0--------|

Here, octaves are shown. This is following 
the guitar if you want a more active part, 
but the bass actually goes like this:

G|-----------------------------|
D|-----------------------------|
A|-----------------------------|
E|-----------------------------|
B|-0-0000-0-0000-0-0000-0-0000-|

Pre-Chorus
G|---------------------------------------|
D|---------------------------------------|
A|---------------------------------------|
E|---------------------------------------|
B|-3-3h5-0h3-333-0-5-5h7p5-0-5-----------|

Chorus
G|----------------|
D|----------------|
A|-2~-54---------2|
E|------43~-33~-1-|
B|----------------|


Outro / Solo
G|----------|-------------------------|
D|----------|---000-------------------|
A|----------|-4----444-422-2----2-----|
E|-7----7---|---------------33-3-33-3-|
B|--00-0-00-|-------------------------|
The first bar once, the second 4x.

The order is pretty simple, you should get it after 
looking at it and playing with the song once or twice.
And Chasehead, donít steal this tab like you steal 
everyone elseĎs. Donít believe it? Look at how many 
of his tabs EXACTLY match someone elseís. Thatís 
why heís a top tabber.

		  

See also:

bass Coldplay - A Whisper bass Eric Clapton - Cocain bass MotorHead - Ace of Spades bass Coldplay - The Scientist (ver. 2) bass Billy Idol - Eyes without a face bass The Beatles - A Day in the Life
e-chords

Other versions:

bass Chevelle - Closure bass Chevelle - Closure (ver. 2) bass Chevelle - Closure (ver. 3) bass Chevelle - Closure-guitar Line
auto scroll beats size up size down change color hide chords drawings
tab show chords e-chords YouTube Clip e-chords hide all tabs e-chords go to top tab

share