Catupecu Machu

home > Catupecu Machu

Come Together Bass Tab

Catupecu Machu

Difficulty: nolevelnolevel

by renejunior

tuner correct add songbook print version text version save to e-mail
chordsukulelecavacokeyboardtabbassdrumsharmonicsflute Guitar Pro
chords

Come Together

  		INTRO:...esto se repite 4 veces 

----------------------------------- 
-------------------------10/7----- 
--5-5--------------------8/5------- 
---------3-5----------------------- 
cuando empieza a cantar repite el mismo riff 4 veces  
más. 
, ...y después hace esto: 
---------------------------------   
---------------------------------   
---------------------------------   
-5-5-5-5-5-5-5-5-5-5-5-5-5-5-5-5-  
  
--------------------------------- 
--------------------------------- 
--------------------------------- 
-3------------------------------- 

ahora se vuelve arepetir todo lo anterior. 

...después  
--------------------------------- 
--------------------------------- 
--------------------------------- 
-7-7-7-7-7-7-7-7-3-3-3-3--5------ 
...vuelve a la Intro, bla, bla(fíjense)..., y un solo  
que es el riff de la Introy después: 
--------------------------------- 
--------------------------------- 
--------------------------------- 
-5-5-5-5-5-5-5-5-5------5-------- 
aca va otra vez el bla, blay el finalcon el riff 
y: 
come together... 
--------------------------------- 
--------------------------------- 
--------------------------------- 
-------------5-5-5-5-5-5-5-5-5-5-...hasta el finnal. 

sé que no sé explicarme bien pero hice mi mejor intento
	  

Search Paypal
auto scroll beats size up size down change color hide chords drawings
tab show chords e-chords YouTube Clip e-chords hide all tabs e-chords go to top tab