Catedral

cotidiano

Catedral

bass Expert expert

by  DIEGOBASS

save to print version add songbook text version e-mail correct tuner
chordsukulelecavacokeyboardtabbassdrumsharmonicaflute Guitar Pro
close

there isn't a video lesson for this song

chords

cotidiano

	  		G------7--9--9h10-9-7--7/12----12--10--9-7h9---------------------- 
D-7------------------------------------------------------------------------------- 
A------------------------------------------------------------------------------------ 
E------------------------------------------------------------------------------------ 
 
 
G-----7-9--9h10-9--7-7/12----11--9--8-9p7h9------------------- 
D--7------------------------------------------------------------------------------- 
A---------------------------------------------------------------------------------- 
E----------------------------------------------------------------------------------- 
 

		  

See also:

bass PG - A Batalha bass Kleber Lucas - Te agradeso bass Catedral - Play Land bass Catedral - Filhos de Caim bass Aline Barros - Apaixonado bass Oficina G3 - Sempre mais(ver.2)
e-chords

Other versions:

bass Catedral - cotidiano bass Catedral - Cotidiano (Ver.2)
auto scroll beats size up size down change color hide chords drawings
tab show chords e-chords YouTube Clip e-chords hide all tabs e-chords go to top tab

share