Calpurnia

home > Calpurnia

Wasting Time Bass Tab

Calpurnia

Difficulty: nolevelnolevel

by bombaXXX

tuner correct add songbook print version text version save to e-mail
chordsukulelecavacokeyboardtabbassdrumsharmonicsflute Guitar Pro
chords

Wasting Time

	  G|-------4---------------4---------------------------5-5-6-6-8-8-| 
D|-----4---4--2--------4---4--2------------------6-6-------------| 
A|--2------------4--2----------------3-3-4-4-6-6-----------------| 
E|-------------------------------4-4-----------------------------| 


G|-------4---------------4---------------------------5h6h8-p6-p5-| 
D|-----4---4--2--------4---4--2------------------6-6-------------| 
A|--2------------4--2----------------3-3-4-4-6-6-----------------| 
E|-------------------------------4-4-----------------------------| 


G|---------------------------------| 
D|---------------------------------| x2 
A|---------------------------------| 
E|--2--0--2--0-2-0--5--3--5--3-5-3-| 


G|---------------------------------| 
D|---------------------------------| (Don't play this part after you repeat the first time) 
A|--2---2---2--2--2--2-2-2---12\2--| 
E|---------------------------------| 

Repeat from start 

G|----------------------------------| 
D|----------------------------------| 
A|--2---2---2--2--2--2-2-2/14--14\5-| 
E|----------------------------------| 


G|-----------------------1-1-2-2-4-4------------------------------| 
D|------4-4-5-5-7-7--2-2------------------1-1-2-2-4-4-4/5-----0h3-| x2 
A|--5-5-------------------------------2-2-----------------5-4-----| 
E|----------------------------------------------------------------| 


G|----7-6---------9-8--------------------------| 
D|--------7-6---------9-8------------------7h9-| 
A|-5-----------7-------------5h6h7-7-5-7h9-----| 
E|-------------------------7-------------------| 


G|----7-6---------9-8--------------------------------------------| 
D|--------7-6---------9-8------------------7h9-------------------| 
A|-5-----------7-------------5h6h7-7-5-7h9------5-5/7-7/10--12\2-| 
E|-------------------------7-------------------------------------| 


G|---------------------------------| 
D|---------------------------------| 
A|--2---2---2--2--2--2-2-2---12\2--| 
E|---------------------------------| 


G|-------4---------------4---------------------------5-5-6-6-8-8-| 
D|-----4---4--2--------4---4--2------------------6-6-------------| 
A|--2------------4--2----------------3-3-4-4-6-6-----------------| 
E|-------------------------------4-4-----------------------------| 


G|-------4---------------4---------------------------5h6h8-p6-p5-| 
D|-----4---4--2--------4---4--2------------------6-6-------------| 
A|--2------------4--2----------------3-3-4-4-6-6-----------------| 
E|-------------------------------4-4-----------------------------| 


G|---------------------------------| 
D|---------------------------------| x3 
A|---------------------------------| 
E|--2--0--2--0-2-0--5--3--5--3-5-3-| 


G|-----------------------| 
D|-----------------------| 
A|-----------------------| 
E|--2--0--2--0-2-0--5--3-| 


G|---------------------------------| 
D|---------------------------------| 
A|-1-0-----------------------------| 
E|-----4-3-2-1-0-------------------| 


************************* 

h = Hammer on 
p = Pull off 
/ = Slide up 
\ = Slide down 

************************* 
	  

there isn't a video lesson for this song

request
Search
auto scroll beats size up size down change color hide chords drawings
tab show chords e-chords YouTube Clip e-chords hide all tabs e-chords go to top tab