Cake

Opera Singer

Cake

bass

save to print version add songbook text version e-mail correct tuner
chordsukulelecavacokeyboardtabbassdrumsharmonicaflute Guitar Pro
close

there isn't a video lesson for this song

chords

Opera Singer

	  		

  from Comfort Eagle

Intro
          B
G|-------|-------------------|-------------------|
D|-6-7-8-|-9--------9--------|-9--------9--------|
A|-------|---789------789----|--789-------67-8-9-|
E|-------|------7---------7--|------7------------|

G|---------------------|---------------|
D|-9--------9----------|-9-------9-----|
A|---789-------789-----|--789----------|
E|-------7----------7--|------7--------|

Verse
  E			         A
G|--------------|--------------|--------------|---------------|
D|--------------|--------------|--------------|---------------|
A|-7-777-7---77-|-7-777-7---77-|-7-777-7---77-|---------------|
E|---------7----|---------7----|---------7----|-5-555-5-0-555-|
  
  A                   B
G|-------------------|------------------|------------------|
D|-7---------7-------|-9---------9------|-9---------9------|
A|---567-------567---|---789------789---|---789------789---|
E|--------5--------5-|-------7--------7-|-------7--------7-|

  E
G|-------------------|-------------------|-------------------|-------------------|
D|-------------------|-------------------|-------------------|-------------------|
A|-7---------7-------|-7---------7-------|-7---------7-------|-7---------7-------|
E|---567-0----5670--|---567-0----5670--|---567-0----5670--|---567-0----5670--|

  A                   B
G|-------------------|------------------|------------------|
D|-7---------7-------|-9---------9------|-9---------9------|
A|---567-------567---|---789------789---|---789------789---|
E|--------5--------5-|-------7--------7-|-------7--------7-|

  B                  A, with variation in last measure on repeat
G|------------------|-------------------|-------------------|
D|-9---------9------|*-7---------7------|-7---------7------*|
A|---789------789---|*---567------567---|--567--------567--*|
E|-------7--------7-|--------5--------5-|------5---------5--|

Song order:
Intro
Verse x3

Then use same feel over these chords:
Bx2 Ax1 Ex2 Bx2 Ax1 Ex1 Bx6 (using variation from intro for 2nd and 4th measures)

Repeat intro
Verse

End: Bx2 Ax1 Ex1 Bx2 Ax1 Ex1, Bx10 with variations from intro

		  

See also:

bass The Beatles - Day Tripper bass The Beatles - Blackbird bass Coldplay - The Scientist (ver. 3) bass Staind - Outside bass Eric Clapton - Change the World bass The Police - Every breath you Take
e-chords

Other versions:

bass Cake - Opera Singer
auto scroll beats size up size down change color hide chords drawings
tab show chords e-chords YouTube Clip e-chords hide all tabs e-chords go to top tab

share