save to print version add songbook text version e-mail correct tuner
chordsukulelecavacokeyboardtabbassdrumsharmonicaflute Guitar Pro
close

there isn't a video lesson for this song

chords

Burned

	  		
G|----------------------------------------------------------------| 
D|------------5---------------5---------------5-------------------| 
A|----------------------------------------------------0---1---2---| 
E|3-------------------3-----------3-------------------------------| 

0:04 

G|----------------------------------------------------------------| 
D|--------------------------------3---3-------3-------------------| 
A|3-------3---0-------0---1---------------------------0---1---2---| 
E|----------------3-------------------------------3---------------| 

G|----------------------------------------------------------------| 
D|--------------------------------3-----------3-------------------| 
A|3-------3---0-------0---1-------------------------------1---2---| 
E|----------------3-----------------------------------3-----------| 

G|----------------------------------------------------------------| 
D|--------------------------------3---3-------3-------2---3-------| 
A|3-----------3-----------0---1-----------------------------------| 
E|--------------------3-------------------------------------------| 

G|----------------------------------------------------------------| 
D|5---5-------5-------3-------------------------------------------| 
A|--------5---------------5---3---------------------------1---2---| 
E|--------------------------------3-----------3-------------------| 

1:18 

G|----------------------------------------------------------------| 
D|------------------------------------------------9-----------7---| 
A|3-----------3---3---------------7-----------7-----------7-------| 
E|----------------------------------------------------------------| 

G|--------7-------5-----------------------------------------------| 
D|--------------------7---5---3-----------3-----------------------| 
A|5---5---------------------------0-----------------------1---2---| 
E|----------------------------------------------------------------| 

G|----------------------------------------------------------------| 
D|--------------------------------------------7-----------7-------| 
A|3-----------3-------2---1---0-------------------0---7-------0---| 
E|----------------0-----------------------------------------------| 

G|----------------------------------------------------------------| 
D|--------------------------------3-------3-------3-------3-------| 
A|3---3-------3-----------2---0-----------------------------------| 
E|----------------0-----------------------------------------------| 

0:33 

G|----------------------------------------------------------------| 
D|--------------------------------3---3-------3-------------------| 
A|3-----------0-------0---1---3-----------------------0---1---2---| 
E|----------------3-------------------------------3---------------| 

G|----------------------------------------------------------------| 
D|--------------------------------3---3-------3-------------------| 
A|3---3-------3-----------1---3---------------------------1---2---| 
E|--------------------3-------------------------------3-----------| 

G|----------------------------------------------------------------| 
D|--------------------------------3---3-------3-------2---3---4---| 
A|3---3-------3-----------1---3-----------------------------------| 
E|--------------------3-------------------------------------------| 

G|----------------------------------------------------------------| 
D|5---5-------5-------3-------------------------------------------| 
A|--------5---------------5---3---------------------------1---2---| 
E|--------------------------------3---3---3---3---3---------------| 

0:47 

G|----------------------------------------------------------------| 
D|------------------------------------------------9---------------| 
A|3-----------3-------2---3-------7---7-------7-----------7-------| 
E|----------------------------------------------------------------| 

G|--------7---5---------------------------------------------------| 
D|----7-----------7---5---3---------------3-----------------------| 
A|5---------------------------5---0-----------------------1---2---| 
E|----------------------------------------------------------------| 

G|----------------------------------------------------------------| 
D|--------------------------------------------7-----------7-------| 
A|3-----------3-------2---1---0-------------------0---7-------0---| 
E|----------------0-----------------------------------------------| 

G|----------------------------------------------------------------| 
D|--------------------------------3-------3-------3-------3-------| 
A|3-----------3-------2---1---0-------------------------------5---| 
E|----------------0-----------------------------------------------| 

G|----------------------------------------------------------------| 
D|----------------------------------------------------------------| 
A|3-------3---0-------0---1---2---3-----------3-----------1---2---| 
E|----------------3-----------------------------------3-----------| 

1:05 

G|----------------------------------------------------------------| 
D|--------------------------------3---3-------3-------------------| 
A|3-----------0-------0---1---3-----------------------0---1---2---| 
E|----------------3-------------------------------3---------------| 

G|----------------------------------------------------------------| 
D|--------------------------------3---3-------3-------------------| 
A|3-----------3-------0-------3---------------------------1---2---| 
E|----------------3-----------------------------------3-----------| 

G|----------------------------------------------------------------| 
D|--------------------------------3---3-------3-------2---3---4---| 
A|3-------3---0-------0---1---3-----------------------------------| 
E|----------------3-----------------------------------------------| 

G|----------------------------------------------------------------| 
D|5---5-------5-------3-------------------------------------------| 
A|--------5---------------5---3---------------------------1---2---| 
E|--------------------------------3---3---3---3---3---------------| 

1:20 

G|----------------------------------------------------------------| 
D|----------------------------------------------------9-----------| 
A|3-----------3-------2---3-------7---7-------7-----------7---0---| 
E|----------------------------------------------------------------| 

G|------------7---5-----------------------------------------------| 
D|--------------------7---5---3-----------3-----------------------| 
A|5---5---------------------------0-----------------------1---2---| 
E|----------------------------------------------------------------| 

G|----------------------------------------------------------------| 
D|--------------------------------------------7---------------7---| 
A|3-----------3-------2---1---0-------------------0---0---7-------| 
E|----------------0-----------------------------------------------| 

G|----------------------------------------------------------------| 
D|--------------------------------3-------3-------3-------3-------| 
A|3-----------3-----------2---0-----------------------------------| 
E|----------------0-----------------------------------------------| 

1:34 

G|----------------------------------------------------------------| 
D|--------------------------------3---3-------3-------------------| 
A|3-------3---0-------0---1---3---------------------------1---2---| 
E|----------------3-----------------------------------3-----------| 

G|----------------------------------------------------------------| 
D|--------------------------------3---3-------3-------------------| 
A|3-------3---0-------0---1---------------------------0---1---2---| 
E|----------------3-------------------------------3---------------| 

G|----------------------------------------------------------------| 
D|--------------------------------3---3-------3-------2---3---4---| 
A|3-------3---0-------0---1---------------------------------------| 
E|----------------3-----------------------------------------------| 

G|----------------------------------------------------------------| 
D|5---5---5---5---5---5---5---5---5---5---5---5---5---5---3-------| 
A|------------------------------------------------------------5---| 
E|----------------------------------------------------------------| 

1:48 

G|------------------------------------------------9---------------| 
D|----------------------------------------------------9-----------| 
A|3-----------3-------2---3-------7---7-------7-----------7---0---| 
E|----------------------------------------------------------------| 

G|------------7---5-----------------------------------------------| 
D|--------------------7---5---3-----------3-----------------------| 
A|5---5---------------------------0-----------------------1---2---| 
E|----------------------------------------------------------------| 

G|----------------------------------------------------------------| 
D|--------------------------------------------7---------------7---| 
A|3-----------3-----------2---1---0-------------------0---7-------| 
E|----------------0-----------------------------------------------| 

G|----------------------------------------------------------------| 
D|--------------------------------3-------3-------3-------3-------| 
A|3-----------3-----------0---5-----------------------------------| 
E|----------------0-----------------------------------------------| 

G|----------------------------------------------------------------| 
D|----------------------------------------------------------------| 
A|3-------3---0-------0---1---2---3---3-------3-----------1---2---| 
E|----------------3-----------------------------------3-----------| 

G|--------------------------------------------------------------------| 
D|--------------------------------3---3-------3-----------------------| 
A|3-----------0-------0---1---3---------------------------1---2---3---| 
E|----------------3-----------------------------------3---------------| 
		  

See also:

bass Soundtracks - Taps Theme bass The Bravery - Bad Sun bass Soundtracks - Debbie Does Dallas - Theme bass Bouncing Souls - Serenity bass Rancid - Daly City Train bass Bouncing Souls - East Coast Fuck You
e-chords

Other versions:

bass Buffalo Springfield - Burned
auto scroll beats size up size down change color hide chords drawings
tab show chords e-chords YouTube Clip e-chords hide all tabs e-chords go to top tab

share