Bruno Mars

home > Bruno Mars

Billionaire Bass Tab

Bruno Mars

Difficulty: nolevelnolevel

by PAULLET3

tuner correct add songbook print version text version save to e-mail
chordsukulelecavacokeyboardtabbassdrumsharmonicsflute Guitar Pro
chords

Billionaire

  		
Verse 
G|--------------------------------------------------------------------------------| 
D|-------------------------6---------6----------4--------4------------------------| 
A|------7---------7---4-44---4--44-4---4------4--------4----------7-------7h9p7---| 
E|-5-55---5--55-5---5--------------------2-22-----22-2-----0-00-7----00-7-------9-| 

Chorus 
G|---------------------------|x3| 
D|---------------------------|x3| 
A|--------------4---------4--|x3| 
E|-10-12--2-2-2---2-2-2-2----|x3| 

G|-----------------------------------------------------------------------| 
D|---------------------------------7----------7---------6------------6---| 
A|----------------12-11-9-7--5-5-5---5--5-5-5---5-4-4-4---4--4-4-4-4-----| 
E|-10-12-12h14-----------------------------------------------------------| 

G|-------------------------------------------------| 
D|-------4--4-2------------------------------------| 
A|-----4--------4-2~-----------9----------7h9p7----| 
E|-2-2-----------------7-7-7-7---7--7-7-7-------9--| 

Verse 
G|----------------------------------------------------------------------------| 
D|--------------------------------------4---------4---------------------------| 
A|------------------------------------4---------4-----------7--------7h9p7----| 
E|-5~----------------------12/--2-2-2-----2-2-2-----0-0-0-7----0-0-7-------9--| 

Interlude 
G|-----------------------------------------------------------| 
D|-----------------------------------------------------------| 
A|-------------------4-4-----4-4---4-------4-----------------| 
E|-0-5-5---0-5-5---5-------5---------2-2-----2-2-0-0-0-0-0~--| 

Outro 
G|-----------------| 
D|-----------------| 
A|------(4)16~-----| 
E|-5~--------------| 



************************************ 

| h    Hammer-on 
| p    Pull-off 
| x    Dead note 
| ~    Vibrato 
| /    Slide up 
| (n)  Ghost note 

************************************ 
	  

Search Paypal
auto scroll beats size up size down change color hide chords drawings
tab show chords e-chords YouTube Clip e-chords hide all tabs e-chords go to top tab