Bouncing Souls

home > Bouncing Souls

Wish Me Well Bass Tab

Bouncing Souls

Difficulty: nolevelnolevel

tuner correct add songbook print version text version save to e-mail
chordsukulelecavacokeyboardtabbassdrumsharmonicsflute Guitar Pro
chords

Wish Me Well

  		Intro 
G:------------------------------------------------------------------| 
D:------------------------------------------------------------------| 
A:-55555555--------55555555--------55555555----------------55555555-|x1 
E:---------55555555--------33335555--------5555555533335555---------| 

Verse 1 
G:------------------------------------------------------------------| 
D:-----------------------44555555----------55777775----5555---------| 
A:-55555555--------555555--------7755555555--------5555----5555-----|x2 
E:---------55555555--------------------------------------------5555-| 

Chorus 
G:----7-------9-----------------------7-------9---------------------| 
D:-55----5-77----7------7-7--------55----5-77----7------------------| 
A:-----------------5~--5-5-------------------------5555555555555555-|x2 
E:-------------------------7--5--3----------------------------------| 

Pre Verse  
G:------------------------------------------------------------------| 
D:------------------------------------------------------------------| 
A:-55555555--------55555555--------55555555----------------55555555-|x1 
E:---------55555555--------33335555--------5555555533335555---------| 

Verse 2 
G:------------------------------------------------------------------| 
D:-----------------------44555444----------55777755----5555---------| 
A:-55555555--------555555--------7755555555--------5555----5555-----|x2 
E:---------55555555--------------------------------------------5555-| 

Chorus 
G:----7-------9-----------------------7-------9---------------------| 
D:-55----5-77----7------7-7--------55----5-77----7------------------| 
A:-----------------5~--5-5-------------------------5555555555555555-|x2 
E:-------------------------7--5--3----------------------------------| 

Bridge 
G:------------------------------------------------------------------| 
D:------------------------------------------------------------------| 
A:-55555555--------55555555--------55555555----------------55555555-|x2 
E:---------55555555--------33335555--------5555555533335555---------| 

Outro 
G:-7-11-14------11-------9------6-7-9-| |-7----11/12----11/7-| 
D:-----------9------9-7-----7---------| |--------------------| 
A:------------------------------------|x4|--------------------|x1 
E:------------------------------------| |--------------------| 

Please rate it! 
	  

Search Paypal
auto scroll beats size up size down change color hide chords drawings
tab show chords e-chords YouTube Clip e-chords hide all tabs e-chords go to top tab