Boring planet

home > Boring planet

Millencolin Bass Tab

Boring planet

Difficulty: nolevelnolevel

by Vitor%5Fhxcx

tuner correct add songbook print version text version save to e-mail
chordsukulelecavacokeyboardtabbassdrumsharmonicsflute Guitar Pro
chords

Millencolin

  		MILLENCOLIN - BORING PLANET 
 
Riff 1 
|---------------------------------------------------| 
|*-------------------------------------------------*| 
|*-4--4--4--4-4-4-4-4--4-4-4-2-2-2-2/7--7-7--7-7-7-*| 
|---------------------------------------------------| 
 
|---------------------------------| 
|---------------------------------| 
|---------------------------------| 
|-5-5-5-5-5-5-5-5-7-7-7-7-7-7-7-7-| 
 
|-----------------------------------------------------------------| 
|-----------------------------------------------------------------| 
|-----------------------------------------------------------------| 
|-5-5-5-5-5-5-5-5-7-7-7-7-7-7-7-7-4-4-4-4-4-4-4-4-5-5-5-5-5-5-5-5-| 
 
|----------------------------------------| 
|----------------------------------------| 
|----------------------------------------| 
|-5-5-5-5-5-5-5-5-7-7-7-7-7-7-7-7--7-5-7-| 
 
|-------------------------------------------------------------------| 
|*-----------------------------------------------------------------*| 
|*-----------------------------------------------------------------*| 
|--9-9-9-9-9-9-9-9-5-5-5-5-5-5-5-5-7-7-7-7-7-7-7-7-7-7-7-7-7-7-7-7--| 
 
Repete o Riff Acima 
 
Solinho 
 
|-------------------------------------------------------------------| 
|*-----------------------------------------------------------------*| 
|*-----------------------------------------------------------------*| 
|--5-5-5-5-5-5-5-5-5-5-5-5-5-5-5-5-7-7-7-7-7-7-7-7-7-7-7-7-7-7-7-7--| 
 
|-------------------------------------------------------------------| 
|*-----------------------------------------------------------------*| 
|*-----------------7-7-7-7-7-7-7-7---------------------------------*| 
|--9-9-9-9-9-9-9-9-----------------5-5-5-5-5-5-5-5-7-7-7-7-7-7-7-7--| 
 
|------------------------------------| 
|*----------------------------------*| 
|*--------------------------7-7-7-7-*| 
|--9-9-9-9-9-9-9-9--7-7-7-7----------| 
 
 
by: Vitor 
	  

Search Paypal
auto scroll beats size up size down change color hide chords drawings
tab show chords e-chords YouTube Clip e-chords hide all tabs e-chords go to top tab