Bob Marley

home > Bob Marley

Mr. brown Bass Tab

Bob Marley

Difficulty: BeginnerBeginner

by europeu

tuner correct add songbook print version text version save to e-mail
chordsukulelecavacokeyboardtabbassdrumsharmonicsflute Guitar Pro
chords

Mr. brown

Year: 1974 - Album: Rasta Revolution

  		G---------------------------------- X2 
D---------------------------------- 
A--4--------------4-4----4--------- 
E------2---4---2------------2--4--2 
 
G------------ X6 
D------------ 
A--4--------- 
E-----2--4--2 
 
G---------------------------------- X1 
D---------------------------------- 
A--4--------------4-4----4--------- 
E------2---4---2------------2--4--2 
 
G------------ X9 
D------------ 
A--4--------- 
E-----2--4--2 
 
s=slide 
 
G--------- x3 
D--------- 
A--------- 
E-4s-5s-6s 
 
G------ 
D------ 
A------ 
E-4-4-4 
 
G---------------------------------- X2 
D---------------------------------- 
A--4--------------4-4----4--------- 
E------2---4---2------------2--4--2 
 
G------------ X10 
D------------ 
A--4--------- 
E-----2--4--2 

	  

Search Paypal
auto scroll beats size up size down change color hide chords drawings
tab show chords e-chords YouTube Clip e-chords hide all tabs e-chords go to top tab